999
DXF file: bg_BG-E1531-200BD-213-SS.dxf
999
Pro/ENGINEER 2020184 by Parametric Technology Corporation
  0
SECTION
  2
HEADER
  9
$ACADVER
  1
AC1032
  9
$DWGCODEPAGE
  3
ANSI_1252
  9
$EXTMAX
 10
22.0
 20
17.0
 30
0.0
  9
$EXTMIN
 10
0.0
 20
0.0
 30
0.0
  9
$LIMMIN
 10
0.0
 20
0.0
  9
$LIMMAX
 10
22.0
 20
17.0
  9
$VIEWCTR
 10
11.0
 20
8.5
  9
$VIEWSIZE
 40
17.0
  9
$CLAYER
  8
0
  9
$LTSCALE
 40
1.21
  9
$CELTYPE
  6
BYLAYER
  9
$DIMSCALE
 40
1.0
  9
$DIMASZ
 40
0.1875
  9
$DIMEXO
 40
0.0625
  9
$DIMDLI
 40
0.836
  9
$DIMEXE
 40
0.125
  9
$DIMCEN
 40
0.198
  9
$DIMLFAC
 40
7.0
  9
$DIMBLK
  1
_CLOSED
  9
$DIMALT
 70
0
  9
$DIMALTF
 40
25.4
  9
$DIMTXT
 40
0.15625
  9
$DIMTOL
 70
0
  9
$DIMLIM
 70
0
  9
$DIMTFAC
 40
1.0
  9
$DIMGAP
 40
0.09
  9
$DIMDSEP
 70
46
  9
$AUNITS
 70
0
  9
$PDMODE
 70
3
  9
$PDSIZE
 40
0.3125
  9
$HANDSEED
  5
406
  9
$TILEMODE
 70
1
  9
$MEASUREMENT
 70
0
  9
$INSUNITS
 70
1
  0
ENDSEC
  0
SECTION
  2
CLASSES
  0
CLASS
  1
ACDBDICTIONARYWDFLT
  2
AcDbDictionaryWithDefault
  3
AutoCAD 2000
 90
0
 91
1
280
0
281
0
  0
CLASS
  1
ACDBPLACEHOLDER
  2
AcDbPlaceHolder
  3
AutoCAD 2000
 90
0
 91
1
280
0
281
0
  0
CLASS
  1
LAYOUT
  2
AcDbLayout
  3
AutoCAD 2000
 90
0
 91
0
280
0
281
0
  0
ENDSEC
  0
SECTION
  2
TABLES
  0
TABLE
  2
VPORT
  5
8
100
AcDbSymbolTable
 70
2
  0
VPORT
  5
1F4
100
AcDbSymbolTableRecord
100
AcDbViewportTableRecord
  2
*ACTIVE
 70
0
 10
0.0
 20
0.0
 11
1.0
 21
1.0
 12
11.0
 22
8.5
 13
0.0
 23
0.0
 14
1.0
 24
1.0
 15
0.0
 25
0.0
 16
0.0
 26
0.0
 36
1.0
 17
0.0
 27
0.0
 37
0.0
 40
17.0
 41
1.2941176471
 42
50.0
 43
0.0
 44
0.0
 50
0.0
 51
0.0
 71
0
 72
100
 73
1
 74
1
 75
0
 76
0
 77
0
 78
0
  0
ENDTAB
  0
TABLE
  2
LTYPE
  5
5
100
AcDbSymbolTable
 70
6
  0
LTYPE
  5
14
100
AcDbSymbolTableRecord
100
AcDbLinetypeTableRecord
  2
BYBLOCK
 70
0
  3

 72
65
 73
0
 40
0.0
  0
LTYPE
  5
15
100
AcDbSymbolTableRecord
100
AcDbLinetypeTableRecord
  2
BYLAYER
 70
0
  3

 72
65
 73
0
 40
0.0
  0
LTYPE
  5
16
100
AcDbSymbolTableRecord
100
AcDbLinetypeTableRecord
  2
CONTINUOUS
 70
64
  3
Solid line
 72
65
 73
0
 40
0.0
  0
LTYPE
  5
1F5
100
AcDbSymbolTableRecord
100
AcDbLinetypeTableRecord
  2
CENTER
 70
64
  3
____ _ ____ _ ____ _ ____ _ ____ _ ____ _ ____
 72
65
 73
4
 40
0.6
 49
0.375
 74
0
 49
-0.075
 74
0
 49
0.075
 74
0
 49
-0.075
 74
0
  0
LTYPE
  5
1F6
100
AcDbSymbolTableRecord
100
AcDbLinetypeTableRecord
  2
HIDDEN
 70
64
  3
- - - - - - - - - - - - - - - - - - - -
 72
65
 73
2
 40
0.2
 49
0.1
 74
0
 49
-0.1
 74
0
  0
LTYPE
  5
1F7
100
AcDbSymbolTableRecord
100
AcDbLinetypeTableRecord
  2
PHANTOM
 70
64
  3
_____ _ _ _____ _ _ _____ _ _ _____
 72
65
 73
6
 40
0.8
 49
0.45
 74
0
 49
-0.05
 74
0
 49
0.1
 74
0
 49
-0.05
 74
0
 49
0.1
 74
0
 49
-0.05
 74
0
  0
LTYPE
  5
1F8
100
AcDbSymbolTableRecord
100
AcDbLinetypeTableRecord
  2
DOT
 70
64
  3
. . . . . . . . . . . . . . . . . . . .
 72
65
 73
2
 40
0.2
 49
0.1
 74
0
 49
-0.1
 74
0
  0
LTYPE
  5
1F9
100
AcDbSymbolTableRecord
100
AcDbLinetypeTableRecord
  2
DASHED
 70
64
  3
- - - - - - - - - - - - - - - - - - - -
 72
65
 73
2
 40
0.2
 49
0.1
 74
0
 49
-0.1
 74
0
  0
ENDTAB
  0
TABLE
  2
LAYER
  5
2
100
AcDbSymbolTable
 70
36
  0
LAYER
  5
10
100
AcDbSymbolTableRecord
100
AcDbLayerTableRecord
  2
0
 70
0
 62
7
  6
CONTINUOUS
370
-3
390
F
  0
LAYER
  5
1FA
100
AcDbSymbolTableRecord
100
AcDbLayerTableRecord
  2
DEFAULT_1
 70
0
 62
7
  6
CENTER
370
-3
390
F
  0
LAYER
  5
1FB
100
AcDbSymbolTableRecord
100
AcDbLayerTableRecord
  2
DEFAULT_2
 70
0
 62
7
  6
HIDDEN
370
-3
390
F
  0
LAYER
  5
1FC
100
AcDbSymbolTableRecord
100
AcDbLayerTableRecord
  2
DEFAULT_3
 70
0
 62
7
  6
PHANTOM
370
-3
390
F
  0
LAYER
  5
1FD
100
AcDbSymbolTableRecord
100
AcDbLayerTableRecord
  2
01_ALL_DTM_PLN
 70
0
 62
7
  6
CONTINUOUS
370
-3
390
F
  0
LAYER
  5
1FE
100
AcDbSymbolTableRecord
100
AcDbLayerTableRecord
  2
01__ASM_ALL_DTM_PLN
 70
0
 62
7
  6
CONTINUOUS
370
-3
390
F
  0
LAYER
  5
1FF
100
AcDbSymbolTableRecord
100
AcDbLayerTableRecord
  2
01__ASM_DEF_DTM_PLN
 70
0
 62
7
  6
CONTINUOUS
370
-3
390
F
  0
LAYER
  5
200
100
AcDbSymbolTableRecord
100
AcDbLayerTableRecord
  2
01___PRT_ALL_DTM_PLN
 70
0
 62
7
  6
CONTINUOUS
370
-3
390
F
  0
LAYER
  5
201
100
AcDbSymbolTableRecord
100
AcDbLayerTableRecord
  2
01___PRT_DEF_DTM_PLN
 70
0
 62
7
  6
CONTINUOUS
370
-3
390
F
  0
LAYER
  5
202
100
AcDbSymbolTableRecord
100
AcDbLayerTableRecord
  2
02_ALL_AXES
 70
0
 62
7
  6
CONTINUOUS
370
-3
390
F
  0
LAYER
  5
203
100
AcDbSymbolTableRecord
100
AcDbLayerTableRecord
  2
02__ASM_ALL_AXES
 70
0
 62
7
  6
CONTINUOUS
370
-3
390
F
  0
LAYER
  5
204
100
AcDbSymbolTableRecord
100
AcDbLayerTableRecord
  2
02___PRT_ALL_AXES
 70
0
 62
7
  6
CONTINUOUS
370
-3
390
F
  0
LAYER
  5
205
100
AcDbSymbolTableRecord
100
AcDbLayerTableRecord
  2
03_ALL_CURVES
 70
0
 62
7
  6
CONTINUOUS
370
-3
390
F
  0
LAYER
  5
206
100
AcDbSymbolTableRecord
100
AcDbLayerTableRecord
  2
03__ASM_ALL_CURVES
 70
0
 62
7
  6
CONTINUOUS
370
-3
390
F
  0
LAYER
  5
207
100
AcDbSymbolTableRecord
100
AcDbLayerTableRecord
  2
03___PRT_ALL_CURVES
 70
0
 62
7
  6
CONTINUOUS
370
-3
390
F
  0
LAYER
  5
208
100
AcDbSymbolTableRecord
100
AcDbLayerTableRecord
  2
04_ALL_DTM_PNT
 70
0
 62
7
  6
CONTINUOUS
370
-3
390
F
  0
LAYER
  5
209
100
AcDbSymbolTableRecord
100
AcDbLayerTableRecord
  2
04__ASM_ALL_DTM_PNT
 70
0
 62
7
  6
CONTINUOUS
370
-3
390
F
  0
LAYER
  5
20A
100
AcDbSymbolTableRecord
100
AcDbLayerTableRecord
  2
04___PRT_ALL_DTM_PNT
 70
0
 62
7
  6
CONTINUOUS
370
-3
390
F
  0
LAYER
  5
20B
100
AcDbSymbolTableRecord
100
AcDbLayerTableRecord
  2
05_ALL_DTM_CSYS
 70
0
 62
7
  6
CONTINUOUS
370
-3
390
F
  0
LAYER
  5
20C
100
AcDbSymbolTableRecord
100
AcDbLayerTableRecord
  2
05__ASM_ALL_DTM_CSYS
 70
0
 62
7
  6
CONTINUOUS
370
-3
390
F
  0
LAYER
  5
20D
100
AcDbSymbolTableRecord
100
AcDbLayerTableRecord
  2
05__ASM_DEF_DTM_CSYS
 70
0
 62
7
  6
CONTINUOUS
370
-3
390
F
  0
LAYER
  5
20E
100
AcDbSymbolTableRecord
100
AcDbLayerTableRecord
  2
05___PRT_ALL_DTM_CSYS
 70
0
 62
7
  6
CONTINUOUS
370
-3
390
F
  0
LAYER
  5
20F
100
AcDbSymbolTableRecord
100
AcDbLayerTableRecord
  2
05___PRT_DEF_DTM_CSYS
 70
0
 62
7
  6
CONTINUOUS
370
-3
390
F
  0
LAYER
  5
210
100
AcDbSymbolTableRecord
100
AcDbLayerTableRecord
  2
06_ALL_SURFS
 70
0
 62
7
  6
CONTINUOUS
370
-3
390
F
  0
LAYER
  5
211
100
AcDbSymbolTableRecord
100
AcDbLayerTableRecord
  2
06__ASM_ALL_SURFS
 70
0
 62
7
  6
CONTINUOUS
370
-3
390
F
  0
LAYER
  5
212
100
AcDbSymbolTableRecord
100
AcDbLayerTableRecord
  2
06___PRT_ALL_SURFS
 70
0
 62
7
  6
CONTINUOUS
370
-3
390
F
  0
LAYER
  5
213
100
AcDbSymbolTableRecord
100
AcDbLayerTableRecord
  2
07__ASM_ALL_SKELETONS
 70
0
 62
7
  6
CONTINUOUS
370
-3
390
F
  0
LAYER
  5
214
100
AcDbSymbolTableRecord
100
AcDbLayerTableRecord
  2
DTM
 70
0
 62
7
  6
CONTINUOUS
370
-3
390
F
  0
LAYER
  5
215
100
AcDbSymbolTableRecord
100
AcDbLayerTableRecord
  2
HIDE
 70
0
 62
7
  6
CONTINUOUS
370
-3
390
F
  0
ENDTAB
  0
TABLE
  2
STYLE
  5
3
100
AcDbSymbolTable
 70
1
  0
STYLE
  5
11
100
AcDbSymbolTableRecord
100
AcDbTextStyleTableRecord
  2
STANDARD
 70
0
 40
0.0
 41
0.8
 50
0.0
 71
0
 42
0.2
  3
SIMPLEX.SHX
  4

  0
STYLE
  5
216
100
AcDbSymbolTableRecord
100
AcDbTextStyleTableRecord
  2
TEXTSTYLE_1
 70
0
 40
0.0
 41
0.8
 50
0.0
 71
0
 42
0.2
  3
gdt
  4

  0
ENDTAB
  0
TABLE
  2
VIEW
  5
6
100
AcDbSymbolTable
 70
0
  0
ENDTAB
  0
TABLE
  2
UCS
  5
7
100
AcDbSymbolTable
 70
0
  0
ENDTAB
  0
TABLE
  2
APPID
  5
9
100
AcDbSymbolTable
 70
1
  0
APPID
  5
217
100
AcDbSymbolTableRecord
100
AcDbRegAppTableRecord
  2
ACAD
 70
0
  0
ENDTAB
  0
TABLE
  2
BLOCK_RECORD
  5
1
100
AcDbSymbolTable
 70
0
  0
BLOCK_RECORD
  5
218
100
AcDbSymbolTableRecord
100
AcDbBlockTableRecord
  2
*Model_Space
  0
BLOCK_RECORD
  5
219
100
AcDbSymbolTableRecord
100
AcDbBlockTableRecord
  2
*Paper_Space
  0
BLOCK_RECORD
  5
21A
100
AcDbSymbolTableRecord
100
AcDbBlockTableRecord
  2
_CLOSED
  0
ENDTAB
  0
TABLE
  2
DIMSTYLE
  5
A
100
AcDbSymbolTable
 70
1
100
AcDbDimStyleTable
 71
0
  0
DIMSTYLE
105
21B
100
AcDbSymbolTableRecord
100
AcDbDimStyleTableRecord
  2
STANDARD
 70
0
  3

  4

 40
1.0
 41
0.1875
 42
0.0625
 43
0.38
 44
0.125
 45
0.0
 46
0.0
 47
0.0001
 48
0.0001
140
0.15625
141
0.09
142
0.0
143
25.4
144
1.0
145
0.0
146
1.0
147
0.09
 71
0
 72
0
 73
1
 74
1
 75
0
 76
0
 77
0
 78
4
 79
1
170
0
171
3
172
0
173
0
174
0
175
0
176
0
177
0
178
0
270
2
179
4
271
4
272
4
273
2
274
2
275
0
280
0
281
0
282
0
283
1
284
4
285
0
286
0
287
3
288
0
340
11
278
46
341
21A
342
21A
343
21A
344
21A
  0
ENDTAB
  0
ENDSEC
  0
SECTION
  2
BLOCKS
  0
BLOCK
  5
20
100
AcDbEntity
  8
0
100
AcDbBlockBegin
  2
*Model_Space
 70
0
 10
0.0
 20
0.0
 30
0.0
  3
*Model_Space
  1

  0
ENDBLK
  5
21
100
AcDbEntity
  8
0
100
AcDbBlockEnd
  0
BLOCK
  5
1C
100
AcDbEntity
  8
0
100
AcDbBlockBegin
  2
*Paper_Space
 70
0
 10
0.0
 20
0.0
 30
0.0
  3
*Paper_Space
  1

  0
ENDBLK
  5
1D
100
AcDbEntity
  8
0
100
AcDbBlockEnd
  0
BLOCK
  5
21C
100
AcDbEntity
  8
0
100
AcDbBlockBegin
  2
_CLOSED
 70
64
 10
0.0
 20
0.0
  3
_CLOSED
  1

  0
LINE
  5
21D
100
AcDbEntity
  8
0
  6
BYBLOCK
 62
0
100
AcDbLine
 10
0.0
 20
0.0
 11
-1.0
 21
0.1666666667
  0
LINE
  5
21E
100
AcDbEntity
  8
0
  6
BYBLOCK
 62
0
100
AcDbLine
 10
-1.0
 20
0.1666666667
 11
-1.0
 21
-0.1666666667
  0
LINE
  5
21F
100
AcDbEntity
  8
0
  6
BYBLOCK
 62
0
100
AcDbLine
 10
-1.0
 20
-0.1666666667
 11
0.0
 21
0.0
  0
LINE
  5
220
100
AcDbEntity
  8
0
  6
BYBLOCK
 62
0
100
AcDbLine
 10
-1.0
 20
0.0
 11
0.0
 21
0.0
  0
ENDBLK
  5
221
100
AcDbEntity
  8
0
  6
BYBLOCK
 62
0
100
AcDbBlockEnd
  0
ENDSEC
  0
SECTION
  2
ENTITIES
  0
LINE
  5
222
100
AcDbEntity
  8
0
100
AcDbLine
 62
7
  6
BYLAYER
 10
0.0
 20
0.0
 11
0.0
 21
17.0
  0
LINE
  5
223
100
AcDbEntity
  8
0
100
AcDbLine
 62
7
  6
BYLAYER
 10
0.0
 20
0.0
 11
22.0
 21
0.0
  0
LINE
  5
224
100
AcDbEntity
  8
0
100
AcDbLine
 62
7
  6
BYLAYER
 10
0.0
 20
17.0
 11
22.0
 21
17.0
  0
LINE
  5
225
100
AcDbEntity
  8
0
100
AcDbLine
 62
7
  6
BYLAYER
 10
22.0
 20
0.0
 11
22.0
 21
17.0
  0
LINE
  5
226
100
AcDbEntity
  8
0
100
AcDbLine
 62
7
  6
BYLAYER
 10
3.7142857143
 20
3.5370207143
 11
3.7142857143
 21
4.9468421429
  0
LINE
  5
227
100
AcDbEntity
  8
0
100
AcDbLine
 62
7
  6
BYLAYER
 10
3.8071428571
 20
3.5188622167
 11
3.8071428571
 21
5.0812171429
  0
LINE
  5
228
100
AcDbEntity
  8
0
100
AcDbLine
 62
7
  6
BYLAYER
 10
4.4642857143
 20
3.5334346481
 11
4.4642857143
 21
3.4919314286
  0
LWPOLYLINE
  5
229
100
AcDbEntity
  8
0
100
AcDbPolyline
 62
7
  6
BYLAYER
 90
51
 70
0
 10
6.7142857143
 20
3.2744753396
 10
6.7228266444
 20
3.2746777771
 10
6.7325412589
 20
3.2754001853
 10
6.7422207609
 20
3.2766452407
 10
6.7517977413
 20
3.2784036751
 10
6.7612191907
 20
3.280661479
 10
6.7704333689
 20
3.283398954
 10
6.7793931461
 20
3.2865874957
 10
6.7880542514
 20
3.2901899668
 10
6.7963768236
 20
3.2941651648
 10
6.8043251968
 20
3.2984681563
 10
6.8118653928
 20
3.3030487934
 10
6.8189822251
 20
3.3078619148
 10
6.8256549606
 20
3.3128497659
 10
6.8319026303
 20
3.3179812503
 10
6.8377345115
 20
3.3232209304
 10
6.8431679679
 20
3.3285429496
 10
6.8482189507
 20
3.3339234448
 10
6.8529036439
 20
3.3393416083
 10
6.8572399818
 20
3.3447793276
 10
6.8612449688
 20
3.3502178728
 10
6.8649371309
 20
3.3556436276
 10
6.8683296671
 20
3.3610379133
 10
6.8714461167
 20
3.3664017332
 10
6.8742748823
 20
3.3716750211
 10
6.8768201405
 20
3.3768162679
 10
6.8790831807
 20
3.3817700618
 10
6.8810676607
 20
3.3864742771
 10
6.8827972869
 20
3.3909068979
 10
6.8842815717
 20
3.3950092824
 10
6.8855689393
 20
3.3988364152
 10
6.8866882353
 20
3.4024073927
 10
6.8876777484
 20
3.4057895145
 10
6.888571893
 20
3.4090620476
 10
6.8893797412
 20
3.4122286377
 10
6.8901195949
 20
3.4153362443
 10
6.8907881913
 20
3.4183467555
 10
6.8913870893
 20
3.4212357469
 10
6.8919241086
 20
3.4240072882
 10
6.892402893
 20
3.4266457609
 10
6.892834703
 20
3.4291807804
 10
6.8932271802
 20
3.4316299662
 10
6.8935873154
 20
3.4340136806
 10
6.8939212941
 20
3.4363536676
 10
6.8942334686
 20
3.4386645164
 10
6.8945280648
 20
3.4409643003
 10
6.8948079561
 20
3.4432645512
 10
6.8950759471
 20
3.4455793296
 10
6.8953341009
 20
3.4479191868
 10
6.8955844454
 20
3.4502967244
 10
6.8960671258
 20
3.4551997746
  0
LINE
  5
22A
100
AcDbEntity
  8
0
100
AcDbLine
 62
7
  6
BYLAYER
 10
6.7075149502
 20
3.2746196926
 11
6.7142857143
 21
3.2744753396
  0
LINE
  5
22B
100
AcDbEntity
  8
0
100
AcDbLine
 62
7
  6
BYLAYER
 10
6.6760995143
 20
3.2598742192
 11
6.4714285714
 21
3.2740742857
  0
LINE
  5
22C
100
AcDbEntity
  8
0
100
AcDbLine
 62
7
  6
BYLAYER
 10
4.8035714286
 20
4.4796076016
 11
4.8035714286
 21
4.0042552555
  0
LINE
  5
22D
100
AcDbEntity
  8
0
100
AcDbLine
 62
7
  6
BYLAYER
 10
4.8214285714
 20
4.06336
 11
4.8214285714
 21
4.4205028571
  0
LINE
  5
22E
100
AcDbEntity
  8
0
100
AcDbLine
 62
7
  6
BYLAYER
 10
4.4642857143
 20
3.4919314286
 11
5.5357142857
 21
3.4919314286
  0
LINE
  5
22F
100
AcDbEntity
  8
0
100
AcDbLine
 62
7
  6
BYLAYER
 10
3.8071428571
 20
3.5188622167
 11
4.4642857143
 21
3.5188622167
  0
LINE
  5
230
100
AcDbEntity
  8
0
100
AcDbLine
 62
7
  6
BYLAYER
 10
5.5357142857
 20
3.5188622167
 11
5.6651785714
 21
3.5188622167
  0
LINE
  5
231
100
AcDbEntity
  8
0
100
AcDbLine
 62
7
  6
BYLAYER
 10
4.4642857143
 20
3.5190742857
 11
5.5357142857
 21
3.5190742857
  0
LINE
  5
232
100
AcDbEntity
  8
0
100
AcDbLine
 62
7
  6
BYLAYER
 10
5.8928571429
 20
3.5276457143
 11
5.6651785714
 21
3.5276457143
  0
LINE
  5
233
100
AcDbEntity
  8
0
100
AcDbLine
 62
7
  6
BYLAYER
 10
3.7149036213
 20
3.5276457143
 11
3.8071428571
 21
3.5276457143
  0
LINE
  5
234
100
AcDbEntity
  8
0
100
AcDbLine
 62
7
  6
BYLAYER
 10
4.4642857143
 20
3.5334346481
 11
5.5357142857
 21
3.5334346481
  0
LINE
  5
235
100
AcDbEntity
  8
0
100
AcDbLine
 62
7
  6
BYLAYER
 10
6.4714285646
 20
5.0888064286
 11
5.8928571429
 21
4.8981814286
  0
LINE
  5
236
100
AcDbEntity
  8
0
100
AcDbLine
 62
7
  6
BYLAYER
 10
7.1785714286
 20
3.9468433575
 11
6.9285714286
 21
3.9249711916
  0
LINE
  5
237
100
AcDbEntity
  8
0
100
AcDbLine
 62
7
  6
BYLAYER
 10
7.2857142857
 20
3.7419314286
 11
7.1785714286
 21
3.7419314286
  0
LINE
  5
238
100
AcDbEntity
  8
0
100
AcDbLine
 62
7
  6
BYLAYER
 10
5.9651785706
 20
3.8184939286
 11
6.3991071369
 21
3.8184939286
  0
LINE
  5
239
100
AcDbEntity
  8
0
100
AcDbLine
 62
7
  6
BYLAYER
 10
6.4714285646
 20
3.3950564286
 11
5.8928571429
 21
3.5856814286
  0
LINE
  5
23A
100
AcDbEntity
  8
0
100
AcDbLine
 62
7
  6
BYLAYER
 10
5.1785714286
 20
4.4205028571
 11
5.1785714286
 21
4.06336
  0
LINE
  5
23B
100
AcDbEntity
  8
0
100
AcDbLine
 62
7
  6
BYLAYER
 10
5.1964285714
 20
4.4796076016
 11
5.1964285714
 21
4.0042552555
  0
LINE
  5
23C
100
AcDbEntity
  8
0
100
AcDbLine
 62
7
  6
BYLAYER
 10
4.8035714286
 20
4.0042552555
 11
5.1964285714
 21
4.0042552555
  0
LINE
  5
23D
100
AcDbEntity
  8
0
100
AcDbLine
 62
7
  6
BYLAYER
 10
4.8035714286
 20
4.0276457143
 11
5.1964285714
 21
4.0276457143
  0
LINE
  5
23E
100
AcDbEntity
  8
0
100
AcDbLine
 62
7
  6
BYLAYER
 10
6.3991071369
 20
4.1347885714
 11
5.9651785706
 21
4.1347885714
  0
LINE
  5
23F
100
AcDbEntity
  8
0
100
AcDbLine
 62
7
  6
BYLAYER
 10
5.5357142857
 20
3.5334346481
 11
5.5357142857
 21
3.4919314286
  0
LINE
  5
240
100
AcDbEntity
  8
0
100
AcDbLine
 62
7
  6
BYLAYER
 10
6.3991071369
 20
4.3490742857
 11
5.9651785706
 21
4.3490742857
  0
LINE
  5
241
100
AcDbEntity
  8
0
100
AcDbLine
 62
7
  6
BYLAYER
 10
5.6651785714
 20
5.0812171429
 11
5.6651785714
 21
3.5188622167
  0
LINE
  5
242
100
AcDbEntity
  8
0
100
AcDbLine
 62
7
  6
BYLAYER
 10
5.7580357143
 20
3.5276457143
 11
5.7580357143
 21
5.0182707143
  0
LINE
  5
243
100
AcDbEntity
  8
0
100
AcDbLine
 62
7
  6
BYLAYER
 10
4.8571428571
 20
4.4562171429
 11
5.1428571429
 21
4.4562171429
  0
LINE
  5
244
100
AcDbEntity
  8
0
100
AcDbLine
 62
7
  6
BYLAYER
 10
4.8035714286
 20
4.4796076016
 11
5.1964285714
 21
4.4796076016
  0
LINE
  5
245
100
AcDbEntity
  8
0
100
AcDbLine
 62
7
  6
BYLAYER
 10
5.8
 20
3.5276457143
 11
5.8
 21
4.9763064286
  0
LINE
  5
246
100
AcDbEntity
  8
0
100
AcDbLine
 62
7
  6
BYLAYER
 10
5.8928571429
 20
4.9763064286
 11
5.8928571429
 21
3.5276457143
  0
LINE
  5
247
100
AcDbEntity
  8
0
100
AcDbLine
 62
7
  6
BYLAYER
 10
7.1785714286
 20
4.5719314286
 11
6.9230306748
 21
4.5719314286
  0
LINE
  5
248
100
AcDbEntity
  8
0
100
AcDbLine
 62
7
  6
BYLAYER
 10
5.9651785706
 20
4.6653689286
 11
6.3991071369
 21
4.6653689286
  0
LINE
  5
249
100
AcDbEntity
  8
0
100
AcDbLine
 62
7
  6
BYLAYER
 10
5.9651785706
 20
4.6653689286
 11
5.9651785706
 21
3.8184939286
  0
LINE
  5
24A
100
AcDbEntity
  8
0
100
AcDbLine
 62
7
  6
BYLAYER
 10
7.2857142857
 20
4.7419314286
 11
7.1785714286
 21
4.7419314286
  0
LINE
  5
24B
100
AcDbEntity
  8
0
100
AcDbLine
 62
7
  6
BYLAYER
 10
6.2857142857
 20
5.2419314286
 11
6.2857142857
 21
5.14336
  0
LINE
  5
24C
100
AcDbEntity
  8
0
100
AcDbLine
 62
7
  6
BYLAYER
 10
5.8928571429
 20
4.9763064286
 11
5.8
 21
4.9763064286
  0
LINE
  5
24D
100
AcDbEntity
  8
0
100
AcDbLine
 62
7
  6
BYLAYER
 10
5.7580357143
 20
5.0182707143
 11
5.6651785714
 21
5.0182707143
  0
LINE
  5
24E
100
AcDbEntity
  8
0
100
AcDbLine
 62
7
  6
BYLAYER
 10
3.8071428571
 20
5.0182707143
 11
3.7857142857
 21
5.0182707143
  0
LINE
  5
24F
100
AcDbEntity
  8
0
100
AcDbLine
 62
7
  6
BYLAYER
 10
6.7825702841
 20
5.0276457143
 11
6.8242857143
 21
5.0276457143
  0
LINE
  5
250
100
AcDbEntity
  8
0
100
AcDbLine
 62
7
  6
BYLAYER
 10
3.8071428571
 20
5.0812171429
 11
5.6651785714
 21
5.0812171429
  0
LINE
  5
251
100
AcDbEntity
  8
0
100
AcDbLine
 62
7
  6
BYLAYER
 10
5.8
 20
4.9763064286
 11
5.7580357143
 21
5.0182707143
  0
LINE
  5
252
100
AcDbEntity
  8
0
100
AcDbLine
 62
7
  6
BYLAYER
 10
6.3991071369
 20
4.6653689286
 11
6.3991071369
 21
3.8184939286
  0
LINE
  5
253
100
AcDbEntity
  8
0
100
AcDbLine
 62
7
  6
BYLAYER
 10
6.4642857143
 20
5.14336
 11
6.4642857143
 21
5.0864530357
  0
LINE
  5
254
100
AcDbEntity
  8
0
100
AcDbLine
 62
7
  6
BYLAYER
 10
6.6760995143
 20
5.223988638
 11
6.4714285714
 21
5.2097885714
  0
LINE
  5
255
100
AcDbEntity
  8
0
100
AcDbLine
 62
7
  6
BYLAYER
 10
7.1428571429
 20
5.14336
 11
6.7142857143
 21
5.14336
  0
LINE
  5
256
100
AcDbEntity
  8
0
100
AcDbLine
 62
7
  6
BYLAYER
 10
6.2857142857
 20
5.14336
 11
6.4714285714
 21
5.14336
  0
LINE
  5
257
100
AcDbEntity
  8
0
100
AcDbLine
 62
7
  6
BYLAYER
 10
6.4714285714
 20
5.2097885714
 11
6.4714285714
 21
3.2740742857
  0
LINE
  5
258
100
AcDbEntity
  8
0
100
AcDbLine
 62
7
  6
BYLAYER
 10
6.2857142857
 20
5.2419314286
 11
7.1428571429
 21
5.2419314286
  0
LINE
  5
259
100
AcDbEntity
  8
0
100
AcDbLine
 62
7
  6
BYLAYER
 10
6.7142857143
 20
5.18836
 11
6.7142857143
 21
3.3209510144
  0
LINE
  5
25A
100
AcDbEntity
  8
03___PRT_ALL_CURVES
100
AcDbLine
 62
7
  6
BYLAYER
 10
6.7142857143
 20
3.3208949509
 11
6.7142857143
 21
3.2744753396
  0
LINE
  5
25B
100
AcDbEntity
  8
0
100
AcDbLine
 62
7
  6
BYLAYER
 10
6.8888175492
 20
3.4853748716
 11
6.8886392458
 21
3.4872931427
  0
LINE
  5
25C
100
AcDbEntity
  8
0
100
AcDbLine
 62
7
  6
BYLAYER
 10
6.8886392458
 20
3.4872931427
 11
6.8884246461
 21
3.4898113068
  0
LINE
  5
25D
100
AcDbEntity
  8
0
100
AcDbLine
 62
7
  6
BYLAYER
 10
6.8884246461
 20
3.4898113068
 11
6.8881814928
 21
3.4929088386
  0
LINE
  5
25E
100
AcDbEntity
  8
0
100
AcDbLine
 62
7
  6
BYLAYER
 10
6.8881814928
 20
3.4929088386
 11
6.8879157936
 21
3.4965668992
  0
LINE
  5
25F
100
AcDbEntity
  8
0
100
AcDbLine
 62
7
  6
BYLAYER
 10
6.8879157936
 20
3.4965668992
 11
6.887632338
 21
3.5007665128
  0
LINE
  5
260
100
AcDbEntity
  8
0
100
AcDbLine
 62
7
  6
BYLAYER
 10
6.887632338
 20
3.5007665128
 11
6.8871816295
 21
3.508046536
  0
LINE
  5
261
100
AcDbEntity
  8
0
100
AcDbLine
 62
7
  6
BYLAYER
 10
6.8871816295
 20
3.508046536
 11
6.8867060924
 21
3.5164996411
  0
LINE
  5
262
100
AcDbEntity
  8
0
100
AcDbLine
 62
7
  6
BYLAYER
 10
6.8867060924
 20
3.5164996411
 11
6.886208934
 21
3.5261592228
  0
LINE
  5
263
100
AcDbEntity
  8
0
100
AcDbLine
 62
7
  6
BYLAYER
 10
6.886208934
 20
3.5261592228
 11
6.8855152495
 21
3.5410072849
  0
LINE
  5
264
100
AcDbEntity
  8
0
100
AcDbLine
 62
7
  6
BYLAYER
 10
6.8855152495
 20
3.5410072849
 11
6.884787718
 21
3.5582585623
  0
LINE
  5
265
100
AcDbEntity
  8
0
100
AcDbLine
 62
7
  6
BYLAYER
 10
6.8570348424
 20
4.8143637541
 11
6.8561261307
 21
4.8373925221
  0
LINE
  5
266
100
AcDbEntity
  8
0
100
AcDbLine
 62
7
  6
BYLAYER
 10
6.884787718
 20
3.5582585623
 11
6.8840263273
 21
3.5781169141
  0
LINE
  5
267
100
AcDbEntity
  8
0
100
AcDbLine
 62
7
  6
BYLAYER
 10
6.8840263273
 20
3.5781169141
 11
6.8832295553
 21
3.6008365062
  0
LINE
  5
268
100
AcDbEntity
  8
0
100
AcDbLine
 62
7
  6
BYLAYER
 10
6.858170105
 20
4.7815271904
 11
6.8570348424
 21
4.8143637541
  0
LINE
  5
269
100
AcDbEntity
  8
0
100
AcDbLine
 62
7
  6
BYLAYER
 10
6.8832295553
 20
3.6008365062
 11
6.8823947232
 21
3.6267255715
  0
LINE
  5
26A
100
AcDbEntity
  8
0
100
AcDbLine
 62
7
  6
BYLAYER
 10
6.8823947232
 20
3.6267255715
 11
6.8815210512
 21
3.6560515299
  0
LINE
  5
26B
100
AcDbEntity
  8
0
100
AcDbLine
 62
7
  6
BYLAYER
 10
6.859556524
 20
4.7353808397
 11
6.858170105
 21
4.7815271904
  0
LINE
  5
26C
100
AcDbEntity
  8
0
100
AcDbLine
 62
7
  6
BYLAYER
 10
6.8815210512
 20
3.6560515299
 11
6.8806116129
 21
3.6889391798
  0
LINE
  5
26D
100
AcDbEntity
  8
0
100
AcDbLine
 62
7
  6
BYLAYER
 10
6.8806116129
 20
3.6889391798
 11
6.8796697446
 21
3.7254583662
  0
LINE
  5
26E
100
AcDbEntity
  8
0
100
AcDbLine
 62
7
  6
BYLAYER
 10
6.8610162901
 20
4.6798382726
 11
6.859556524
 21
4.7353808397
  0
LINE
  5
26F
100
AcDbEntity
  8
0
100
AcDbLine
 62
7
  6
BYLAYER
 10
6.8796697446
 20
3.7254583662
 11
6.8786984409
 21
3.7656399012
  0
LINE
  5
270
100
AcDbEntity
  8
0
100
AcDbLine
 62
7
  6
BYLAYER
 10
6.8786984409
 20
3.7656399012
 11
6.8776970524
 21
3.8096235059
  0
LINE
  5
271
100
AcDbEntity
  8
0
100
AcDbLine
 62
7
  6
BYLAYER
 10
6.8627869913
 20
4.6034598122
 11
6.8610162901
 21
4.6798382726
  0
LINE
  5
272
100
AcDbEntity
  8
0
100
AcDbLine
 62
7
  6
BYLAYER
 10
6.8776970524
 20
3.8096235059
 11
6.8766618541
 21
3.8576704423
  0
LINE
  5
273
100
AcDbEntity
  8
0
100
AcDbLine
 62
7
  6
BYLAYER
 10
6.8766618541
 20
3.8576704423
 11
6.8755891658
 21
3.910035662
  0
LINE
  5
274
100
AcDbEntity
  8
0
100
AcDbLine
 62
7
  6
BYLAYER
 10
6.8646861152
 20
4.511652739
 11
6.8627869913
 21
4.6034598122
  0
LINE
  5
275
100
AcDbEntity
  8
0
100
AcDbLine
 62
7
  6
BYLAYER
 10
6.8755891658
 20
3.910035662
 11
6.8744752716
 21
3.9669578853
  0
LINE
  5
276
100
AcDbEntity
  8
0
100
AcDbLine
 62
7
  6
BYLAYER
 10
6.8744752716
 20
3.9669578853
 11
6.873019104
 21
4.044834226
  0
LINE
  5
277
100
AcDbEntity
  8
0
100
AcDbLine
 62
7
  6
BYLAYER
 10
6.8672810565
 20
4.372651537
 11
6.8646861152
 21
4.511652739
  0
LINE
  5
278
100
AcDbEntity
  8
0
100
AcDbLine
 62
7
  6
BYLAYER
 10
6.873019104
 20
4.044834226
 11
6.8714855833
 21
4.1304018684
  0
LINE
  5
279
100
AcDbEntity
  8
0
100
AcDbLine
 62
7
  6
BYLAYER
 10
6.8714855833
 20
4.1304018684
 11
6.8672810565
 21
4.372651537
  0
LINE
  5
27A
100
AcDbEntity
  8
0
100
AcDbLine
 62
7
  6
BYLAYER
 10
6.8242857143
 20
5.0276457143
 11
6.8242857143
 21
4.9408923388
  0
LWPOLYLINE
  5
27B
100
AcDbEntity
  8
0
100
AcDbPolyline
 62
7
  6
BYLAYER
 90
12
 70
0
 10
6.7903496457
 20
5.0227410791
 10
6.786513577
 20
5.0252805144
 10
6.780163457
 20
5.029089337
 10
6.7734618039
 20
5.0326198534
 10
6.7664250717
 20
5.0358323988
 10
6.7591166517
 20
5.038672017
 10
6.751594772
 20
5.0410979331
 10
6.7439258504
 20
5.0430788867
 10
6.7361800401
 20
5.0445988222
 10
6.7284294405
 20
5.0456532815
 10
6.7207693806
 20
5.0462472982
 10
6.7142857143
 20
5.0464052718
  0
LWPOLYLINE
  5
27C
100
AcDbEntity
  8
0
100
AcDbPolyline
 62
7
  6
BYLAYER
 90
7
 70
0
 10
6.8890241448
 20
3.4834116881
 10
6.8890288429
 20
3.4833747932
 10
6.8890209676
 20
3.4834401872
 10
6.8889936742
 20
3.483676874
 10
6.8889493432
 20
3.4840807167
 10
6.888889996
 20
3.4846483044
 10
6.8888175492
 20
3.4853748716
  0
LWPOLYLINE
  5
27D
100
AcDbEntity
  8
0
100
AcDbPolyline
 62
7
  6
BYLAYER
 90
25
 70
0
 10
6.8517832925
 20
4.9090105022
 10
6.8515868437
 20
4.9109257682
 10
6.8513833034
 20
4.9128168126
 10
6.8511713558
 20
4.9146904924
 10
6.8509491008
 20
4.9165570493
 10
6.8507146107
 20
4.9184247402
 10
6.8504650631
 20
4.9203064243
 10
6.8501973058
 20
4.9222141198
 10
6.8499079236
 20
4.9241583351
 10
6.8495928564
 20
4.9261503911
 10
6.8492475224
 20
4.9282011718
 10
6.8488664865
 20
4.9303226201
 10
6.8484439732
 20
4.9325243024
 10
6.8479733189
 20
4.9348162417
 10
6.8474468641
 20
4.9372088032
 10
6.846857881
 20
4.9397041963
 10
6.8461912426
 20
4.9423342661
 10
6.8454326795
 20
4.9451171618
 10
6.8445605459
 20
4.9480873027
 10
6.8435509199
 20
4.951272479
 10
6.8423760623
 20
4.9546978909
 10
6.8409971748
 20
4.9584030453
 10
6.8393971205
 20
4.9623552541
 10
6.8375469611
 20
4.9665474476
 10
6.8352677396
 20
4.971261761
  0
LINE
  5
27E
100
AcDbEntity
  8
0
100
AcDbLine
 62
7
  6
BYLAYER
 10
6.8521597191
 20
4.9050767623
 11
6.8517832925
 21
4.9090105022
  0
LINE
  5
27F
100
AcDbEntity
  8
0
100
AcDbLine
 62
7
  6
BYLAYER
 10
6.8525202217
 20
4.9009616137
 11
6.8521597191
 21
4.9050767623
  0
LINE
  5
280
100
AcDbEntity
  8
0
100
AcDbLine
 62
7
  6
BYLAYER
 10
6.852870241
 20
4.8966180968
 11
6.8525202217
 21
4.9009616137
  0
LINE
  5
281
100
AcDbEntity
  8
0
100
AcDbLine
 62
7
  6
BYLAYER
 10
6.853213644
 20
4.8920054589
 11
6.852870241
 21
4.8966180968
  0
LINE
  5
282
100
AcDbEntity
  8
0
100
AcDbLine
 62
7
  6
BYLAYER
 10
6.8535531912
 20
4.8870880779
 11
6.853213644
 21
4.8920054589
  0
LINE
  5
283
100
AcDbEntity
  8
0
100
AcDbLine
 62
7
  6
BYLAYER
 10
6.854059415
 20
4.8790735603
 11
6.8535531912
 21
4.8870880779
  0
LINE
  5
284
100
AcDbEntity
  8
0
100
AcDbLine
 62
7
  6
BYLAYER
 10
6.8545660878
 20
4.8702063571
 11
6.854059415
 21
4.8790735603
  0
LINE
  5
285
100
AcDbEntity
  8
0
100
AcDbLine
 62
7
  6
BYLAYER
 10
6.855077424
 20
4.8603774004
 11
6.8545660878
 21
4.8702063571
  0
LINE
  5
286
100
AcDbEntity
  8
0
100
AcDbLine
 62
7
  6
BYLAYER
 10
6.8557719036
 20
4.8455848728
 11
6.855077424
 21
4.8603774004
  0
LINE
  5
287
100
AcDbEntity
  8
0
100
AcDbLine
 62
7
  6
BYLAYER
 10
6.8561261307
 20
4.8373925221
 11
6.8557719036
 21
4.8455848728
  0
LINE
  5
288
100
AcDbEntity
  8
0
100
AcDbLine
 62
7
  6
BYLAYER
 10
6.9285714286
 20
3.9249711916
 11
6.9285714286
 21
4.5460561613
  0
LINE
  5
289
100
AcDbEntity
  8
02___PRT_ALL_AXES
100
AcDbLine
 62
7
  6
BYLAYER
 10
6.9285714286
 20
5.14336
 11
6.924099423
 21
4.5789928918
  0
LINE
  5
28A
100
AcDbEntity
  8
0
100
AcDbLine
 62
7
  6
BYLAYER
 10
6.9086769438
 20
3.7500110667
 11
6.911417362
 21
3.8478653464
  0
LINE
  5
28B
100
AcDbEntity
  8
0
100
AcDbLine
 62
7
  6
BYLAYER
 10
6.9063645183
 20
3.6745423761
 11
6.9086769438
 21
3.7500110667
  0
LINE
  5
28C
100
AcDbEntity
  8
0
100
AcDbLine
 62
7
  6
BYLAYER
 10
6.9045549506
 20
3.6210873942
 11
6.9063645183
 21
3.6745423761
  0
LINE
  5
28D
100
AcDbEntity
  8
0
100
AcDbLine
 62
7
  6
BYLAYER
 10
6.9028955021
 20
3.5770590854
 11
6.9045549506
 21
3.6210873942
  0
LINE
  5
28E
100
AcDbEntity
  8
0
100
AcDbLine
 62
7
  6
BYLAYER
 10
6.9016124842
 20
3.5466247769
 11
6.9028955021
 21
3.5770590854
  0
LINE
  5
28F
100
AcDbEntity
  8
0
100
AcDbLine
 62
7
  6
BYLAYER
 10
6.9006397289
 20
3.5257875542
 11
6.9016124842
 21
3.5466247769
  0
LINE
  5
290
100
AcDbEntity
  8
0
100
AcDbLine
 62
7
  6
BYLAYER
 10
6.8997032471
 20
3.5076274301
 11
6.9006397289
 21
3.5257875542
  0
LINE
  5
291
100
AcDbEntity
  8
0
100
AcDbLine
 62
7
  6
BYLAYER
 10
6.8990170813
 20
3.4955330364
 11
6.8997032471
 21
3.5076274301
  0
LINE
  5
292
100
AcDbEntity
  8
0
100
AcDbLine
 62
7
  6
BYLAYER
 10
6.8983389744
 20
3.4845985235
 11
6.8990170813
 21
3.4955330364
  0
LINE
  5
293
100
AcDbEntity
  8
0
100
AcDbLine
 62
7
  6
BYLAYER
 10
6.8978895992
 20
3.4779095337
 11
6.8983389744
 21
3.4845985235
  0
LINE
  5
294
100
AcDbEntity
  8
0
100
AcDbLine
 62
7
  6
BYLAYER
 10
6.8974405728
 20
3.4716654316
 11
6.8978895992
 21
3.4779095337
  0
LINE
  5
295
100
AcDbEntity
  8
0
100
AcDbLine
 62
7
  6
BYLAYER
 10
6.8969895673
 20
3.4658291499
 11
6.8974405728
 21
3.4716654316
  0
LINE
  5
296
100
AcDbEntity
  8
0
100
AcDbLine
 62
7
  6
BYLAYER
 10
6.8965333015
 20
3.4603574743
 11
6.8969895673
 21
3.4658291499
  0
LINE
  5
297
100
AcDbEntity
  8
0
100
AcDbLine
 62
7
  6
BYLAYER
 10
6.8960671258
 20
3.4551997746
 11
6.8965333015
 21
3.4603574743
  0
LINE
  5
298
100
AcDbEntity
  8
0
100
AcDbLine
 62
7
  6
BYLAYER
 10
6.8801318023
 20
3.7072398263
 11
6.9285714286
 21
3.9249711916
  0
LINE
  5
299
100
AcDbEntity
  8
0
100
AcDbLine
 62
7
  6
BYLAYER
 10
6.8242857143
 20
5.0276457143
 11
6.8382155268
 21
4.9650325745
  0
LINE
  5
29A
100
AcDbEntity
  8
0
100
AcDbLine
 62
7
  6
BYLAYER
 10
6.8525498721
 20
4.9006010995
 11
6.9256704168
 21
4.5719314286
  0
LINE
  5
29B
100
AcDbEntity
  8
0
100
AcDbLine
 62
7
  6
BYLAYER
 10
7.1428571429
 20
5.2419314286
 11
7.1428571429
 21
5.14336
  0
LINE
  5
29C
100
AcDbEntity
  8
0
100
AcDbLine
 62
7
  6
BYLAYER
 10
7.1785714286
 20
4.7419314286
 11
7.1785714286
 21
3.7419314286
  0
LINE
  5
29D
100
AcDbEntity
  8
0
100
AcDbLine
 62
7
  6
BYLAYER
 10
7.2857142857
 20
4.7419314286
 11
7.2857142857
 21
3.7419314286
  0
LINE
  5
29E
100
AcDbEntity
  8
0
100
AcDbLine
 62
7
  6
BYLAYER
 10
3.7142857143
 20
12.1787018762
 11
3.7142857143
 21
13.588506981
  0
LINE
  5
29F
100
AcDbEntity
  8
0
100
AcDbLine
 62
7
  6
BYLAYER
 10
3.8071428571
 20
12.0443187157
 11
3.8071428571
 21
13.7228901415
  0
LINE
  5
2A0
100
AcDbEntity
  8
0
100
AcDbLine
 62
7
  6
BYLAYER
 10
4.8571428571
 20
11.3478901429
 11
5.1428571429
 21
11.3478901429
  0
LINE
  5
2A1
100
AcDbEntity
  8
0
100
AcDbLine
 62
7
  6
BYLAYER
 10
4.8035714286
 20
11.3836044286
 11
4.8214285714
 21
11.3836044286
  0
LINE
  5
2A2
100
AcDbEntity
  8
0
100
AcDbLine
 62
7
  6
BYLAYER
 10
5.1785714286
 20
11.3836044286
 11
5.1964285714
 21
11.3836044286
  0
LWPOLYLINE
  5
2A3
100
AcDbEntity
  8
0
100
AcDbPolyline
 62
7
  6
BYLAYER
 90
50
 70
0
 10
6.7173026036
 20
11.9944360234
 10
6.7219544133
 20
11.9945969227
 10
6.7306020593
 20
11.99526858
 10
6.739189033
 20
11.9964192672
 10
6.74766243
 20
11.9980376432
 10
6.7559798073
 20
12.0001090361
 10
6.7641003086
 20
12.0026144953
 10
6.7719869693
 20
12.0055274421
 10
6.7796054155
 20
12.0088158171
 10
6.7869244758
 20
12.0124448366
 10
6.7939170999
 20
12.0163776845
 10
6.8005567282
 20
12.020573372
 10
6.8068345234
 20
12.0249959256
 10
6.8127394673
 20
12.0296023067
 10
6.818277713
 20
12.0343615052
 10
6.8234528097
 20
12.0392414899
 10
6.828272019
 20
12.044214282
 10
6.8327435682
 20
12.0492537843
 10
6.8368767834
 20
12.0543342497
 10
6.8406872275
 20
12.0594357265
 10
6.8441773506
 20
12.064520757
 10
6.8473571125
 20
12.0695601041
 10
6.8502323694
 20
12.0745157671
 10
6.8528165802
 20
12.0793597266
 10
6.8551120871
 20
12.0840389755
 10
6.857127573
 20
12.0885046499
 10
6.8588798008
 20
12.0927187658
 10
6.8603757563
 20
12.0966140153
 10
6.8616639558
 20
12.1002351775
 10
6.8627695137
 20
12.1035812696
 10
6.863741336
 20
12.1067418567
 10
6.8646213602
 20
12.1098169958
 10
6.8654149139
 20
12.1127992168
 10
6.8661414024
 20
12.1157395758
 10
6.8667912133
 20
12.1185754001
 10
6.8673614544
 20
12.1212571552
 10
6.8678624564
 20
12.123791924
 10
6.8682980515
 20
12.1261568756
 10
6.8686819734
 20
12.1283869148
 10
6.869023381
 20
12.1305026173
 10
6.8693300285
 20
12.1325244715
 10
6.8696088321
 20
12.1344753823
 10
6.8698644766
 20
12.1363692943
 10
6.8701015861
 20
12.1382248331
 10
6.8703229452
 20
12.1400508014
 10
6.8705314142
 20
12.1418597711
 10
6.8707288302
 20
12.1436583425
 10
6.870916966
 20
12.1454545766
 10
6.8710972609
 20
12.1472553238
 10
6.8714393173
 20
12.1508983222
  0
LINE
  5
2A4
100
AcDbEntity
  8
0
100
AcDbLine
 62
7
  6
BYLAYER
 10
6.7182109623
 20
11.9944564436
 11
6.7173026035
 21
11.9944360234
  0
LINE
  5
2A5
100
AcDbEntity
  8
0
100
AcDbLine
 62
7
  6
BYLAYER
 10
6.7173026035
 20
11.9944360234
 11
6.7142865433
 21
11.9944065363
  0
LINE
  5
2A6
100
AcDbEntity
  8
0
100
AcDbLine
 62
7
  6
BYLAYER
 10
4.8571428571
 20
11.9945660982
 11
5.1428571429
 21
11.9945660982
  0
LINE
  5
2A7
100
AcDbEntity
  8
0
100
AcDbLine
 62
7
  6
BYLAYER
 10
6.4714285714
 20
11.9157472857
 11
6.6760995143
 21
11.9015472192
  0
LINE
  5
2A8
100
AcDbEntity
  8
0
100
AcDbLine
 62
7
  6
BYLAYER
 10
4.8035714286
 20
12.0443187143
 11
4.8035714286
 21
11.3836044286
  0
LINE
  5
2A9
100
AcDbEntity
  8
0
100
AcDbLine
 62
7
  6
BYLAYER
 10
4.8214285714
 20
12.0635356783
 11
4.8214285714
 21
12.0443187143
  0
LINE
  5
2AA
100
AcDbEntity
  8
0
100
AcDbLine
 62
7
  6
BYLAYER
 10
4.8214285714
 20
11.9436526258
 11
4.8214285714
 21
11.3836044286
  0
LINE
  5
2AB
100
AcDbEntity
  8
0
100
AcDbLine
 62
7
  6
BYLAYER
 10
5.8928571429
 20
13.5398544286
 11
5.9651785706
 21
13.5636825536
  0
LINE
  5
2AC
100
AcDbEntity
  8
0
100
AcDbLine
 62
7
  6
BYLAYER
 10
4.8035714286
 20
12.0279110036
 11
5.1964285714
 21
12.0279110036
  0
LINE
  5
2AD
100
AcDbEntity
  8
0
100
AcDbLine
 62
7
  6
BYLAYER
 10
3.8071428571
 20
12.0443187143
 11
5.6651785714
 21
12.0443187143
  0
LINE
  5
2AE
100
AcDbEntity
  8
0
100
AcDbLine
 62
7
  6
BYLAYER
 10
4.8571428571
 20
12.0721353023
 11
5.1428571429
 21
12.0721353023
  0
LINE
  5
2AF
100
AcDbEntity
  8
0
100
AcDbLine
 62
7
  6
BYLAYER
 10
5.7580357143
 20
12.1072651429
 11
5.6651785714
 21
12.1072651429
  0
LINE
  5
2B0
100
AcDbEntity
  8
0
100
AcDbLine
 62
7
  6
BYLAYER
 10
3.8071428571
 20
12.1072651429
 11
3.7857142857
 21
12.1072651429
  0
LINE
  5
2B1
100
AcDbEntity
  8
0
100
AcDbLine
 62
7
  6
BYLAYER
 10
5.8928571429
 20
12.1492294286
 11
5.8
 21
12.1492294286
  0
LINE
  5
2B2
100
AcDbEntity
  8
0
100
AcDbLine
 62
7
  6
BYLAYER
 10
5.1785714286
 20
11.3836044286
 11
5.1785714286
 21
11.9436526258
  0
LINE
  5
2B3
100
AcDbEntity
  8
0
100
AcDbLine
 62
7
  6
BYLAYER
 10
5.1785714286
 20
12.0443187143
 11
5.1785714286
 21
12.0635356783
  0
LINE
  5
2B4
100
AcDbEntity
  8
0
100
AcDbLine
 62
7
  6
BYLAYER
 10
5.1964285714
 20
12.0443187143
 11
5.1964285714
 21
11.3836044286
  0
LINE
  5
2B5
100
AcDbEntity
  8
0
100
AcDbLine
 62
7
  6
BYLAYER
 10
7.1785714286
 20
12.5885163575
 11
6.9285714286
 21
12.5666441916
  0
LINE
  5
2B6
100
AcDbEntity
  8
0
100
AcDbLine
 62
7
  6
BYLAYER
 10
7.1785714286
 20
12.3836044286
 11
7.2857142857
 21
12.3836044286
  0
LINE
  5
2B7
100
AcDbEntity
  8
0
100
AcDbLine
 62
7
  6
BYLAYER
 10
5.8928571429
 20
12.2273544286
 11
5.9651785706
 21
12.2035263036
  0
LINE
  5
2B8
100
AcDbEntity
  8
0
100
AcDbLine
 62
7
  6
BYLAYER
 10
6.3991071369
 20
12.0605575536
 11
6.4714285646
 21
12.0367294286
  0
LINE
  5
2B9
100
AcDbEntity
  8
0
100
AcDbLine
 62
7
  6
BYLAYER
 10
5.6651785714
 20
13.7228901415
 11
5.6651785714
 21
12.0443187157
  0
LINE
  5
2BA
100
AcDbEntity
  8
0
100
AcDbLine
 62
7
  6
BYLAYER
 10
7.1785714286
 20
12.7943187143
 11
6.9230306748
 21
12.7943187143
  0
LINE
  5
2BB
100
AcDbEntity
  8
0
100
AcDbLine
 62
7
  6
BYLAYER
 10
5.7580357143
 20
12.1072651429
 11
5.7580357143
 21
13.6599437143
  0
LINE
  5
2BC
100
AcDbEntity
  8
0
100
AcDbLine
 62
7
  6
BYLAYER
 10
5.8
 20
12.1492294286
 11
5.8
 21
13.6179794286
  0
LINE
  5
2BD
100
AcDbEntity
  8
0
100
AcDbLine
 62
7
  6
BYLAYER
 10
7.1785714286
 20
12.9728901429
 11
6.9230306748
 21
12.9728901429
  0
LINE
  5
2BE
100
AcDbEntity
  8
0
100
AcDbLine
 62
7
  6
BYLAYER
 10
5.8928571429
 20
13.6179794286
 11
5.8928571429
 21
12.1492294286
  0
LINE
  5
2BF
100
AcDbEntity
  8
0
100
AcDbLine
 62
7
  6
BYLAYER
 10
5.9651785706
 20
13.5636825536
 11
5.9651785706
 21
13.4157763366
  0
LINE
  5
2C0
100
AcDbEntity
  8
0
100
AcDbLine
 62
7
  6
BYLAYER
 10
5.9651785706
 20
12.3514325205
 11
5.9651785706
 21
12.2035263036
  0
LINE
  5
2C1
100
AcDbEntity
  8
0
100
AcDbLine
 62
7
  6
BYLAYER
 10
7.1785714286
 20
13.1786924997
 11
6.9285714286
 21
13.2005646655
  0
LINE
  5
2C2
100
AcDbEntity
  8
0
100
AcDbLine
 62
7
  6
BYLAYER
 10
5.8
 20
12.1492294286
 11
5.7580357143
 21
12.1072651429
  0
LINE
  5
2C3
100
AcDbEntity
  8
0
100
AcDbLine
 62
7
  6
BYLAYER
 10
7.1785714286
 20
13.3836044286
 11
7.2857142857
 21
13.3836044286
  0
LINE
  5
2C4
100
AcDbEntity
  8
0
100
AcDbLine
 62
7
  6
BYLAYER
 10
6.3991071369
 20
12.1778375818
 11
6.3991071369
 21
12.0605575536
  0
LINE
  5
2C5
100
AcDbEntity
  8
0
100
AcDbLine
 62
7
  6
BYLAYER
 10
5.8928571429
 20
13.6179794286
 11
5.8
 21
13.6179794286
  0
LINE
  5
2C6
100
AcDbEntity
  8
0
100
AcDbLine
 62
7
  6
BYLAYER
 10
5.7580357143
 20
13.6599437143
 11
5.6651785714
 21
13.6599437143
  0
LINE
  5
2C7
100
AcDbEntity
  8
0
100
AcDbLine
 62
7
  6
BYLAYER
 10
3.8071428571
 20
13.6599437143
 11
3.7857142857
 21
13.6599437143
  0
LINE
  5
2C8
100
AcDbEntity
  8
0
100
AcDbLine
 62
7
  6
BYLAYER
 10
5.8
 20
13.6179794286
 11
5.7580357143
 21
13.6599437143
  0
LINE
  5
2C9
100
AcDbEntity
  8
0
100
AcDbLine
 62
7
  6
BYLAYER
 10
6.4714285714
 20
11.9157472857
 11
6.4714285714
 21
13.3705607027
  0
LINE
  5
2CA
100
AcDbEntity
  8
0
100
AcDbLine
 62
7
  6
BYLAYER
 10
6.4714285714
 20
13.430227386
 11
6.4714285714
 21
13.5371590125
  0
LINE
  5
2CB
100
AcDbEntity
  8
0
100
AcDbLine
 62
7
  6
BYLAYER
 10
3.8071428571
 20
13.7228901429
 11
5.6651785714
 21
13.7228901429
  0
LINE
  5
2CC
100
AcDbEntity
  8
0
100
AcDbLine
 62
7
  6
BYLAYER
 10
6.7142857143
 20
13.295033
 11
6.7142857143
 21
11.9371758572
  0
LWPOLYLINE
  5
2CD
100
AcDbEntity
  8
0
100
AcDbPolyline
 62
7
  6
BYLAYER
 90
3
 70
0
 10
6.8666508884
 20
12.174843237
 10
6.8666347066
 20
12.174996929
 10
6.8666086666
 20
12.1752569643
  0
LINE
  5
2CE
100
AcDbEntity
  8
0
100
AcDbLine
 62
7
  6
BYLAYER
 10
6.8666086666
 20
12.1752569643
 11
6.8665269861
 21
12.1761323493
  0
LINE
  5
2CF
100
AcDbEntity
  8
0
100
AcDbLine
 62
7
  6
BYLAYER
 10
6.8665269861
 20
12.1761323493
 11
6.8664128153
 21
12.1774649235
  0
LINE
  5
2D0
100
AcDbEntity
  8
0
100
AcDbLine
 62
7
  6
BYLAYER
 10
6.8664128153
 20
12.1774649235
 11
6.8662725351
 21
12.1792404217
  0
LINE
  5
2D1
100
AcDbEntity
  8
0
100
AcDbLine
 62
7
  6
BYLAYER
 10
6.8662725351
 20
12.1792404217
 11
6.8661108223
 21
12.1814501831
  0
LINE
  5
2D2
100
AcDbEntity
  8
0
100
AcDbLine
 62
7
  6
BYLAYER
 10
6.8661108223
 20
12.1814501831
 11
6.8659311445
 21
12.1840899376
  0
LINE
  5
2D3
100
AcDbEntity
  8
0
100
AcDbLine
 62
7
  6
BYLAYER
 10
6.8659311445
 20
12.1840899376
 11
6.8656319969
 21
12.1888791695
  0
LINE
  5
2D4
100
AcDbEntity
  8
0
100
AcDbLine
 62
7
  6
BYLAYER
 10
6.8656319969
 20
12.1888791695
 11
6.8652990986
 21
12.1947452443
  0
LINE
  5
2D5
100
AcDbEntity
  8
0
100
AcDbLine
 62
7
  6
BYLAYER
 10
6.8652990986
 20
12.1947452443
 11
6.8649325907
 21
12.2018142963
  0
LINE
  5
2D6
100
AcDbEntity
  8
0
100
AcDbLine
 62
7
  6
BYLAYER
 10
6.8649325907
 20
12.2018142963
 11
6.8643958319
 21
12.2132515558
  0
LINE
  5
2D7
100
AcDbEntity
  8
0
100
AcDbLine
 62
7
  6
BYLAYER
 10
6.8643958319
 20
12.2132515558
 11
6.8638138324
 21
12.2270217764
  0
LINE
  5
2D8
100
AcDbEntity
  8
0
100
AcDbLine
 62
7
  6
BYLAYER
 10
6.8638138324
 20
12.2270217764
 11
6.8631931906
 21
12.243178434
  0
LINE
  5
2D9
100
AcDbEntity
  8
0
100
AcDbLine
 62
7
  6
BYLAYER
 10
6.8631931906
 20
12.243178434
 11
6.8625368497
 21
12.2618147384
  0
LINE
  5
2DA
100
AcDbEntity
  8
0
100
AcDbLine
 62
7
  6
BYLAYER
 10
6.8625368497
 20
12.2618147384
 11
6.8618470329
 21
12.2830076433
  0
LINE
  5
2DB
100
AcDbEntity
  8
0
100
AcDbLine
 62
7
  6
BYLAYER
 10
6.8618470329
 20
12.2830076433
 11
6.8611255052
 21
12.306813256
  0
LINE
  5
2DC
100
AcDbEntity
  8
0
100
AcDbLine
 62
7
  6
BYLAYER
 10
6.8611255052
 20
12.306813256
 11
6.8603718381
 21
12.3333318529
  0
LINE
  5
2DD
100
AcDbEntity
  8
0
100
AcDbLine
 62
7
  6
BYLAYER
 10
6.8603718381
 20
12.3333318529
 11
6.859379674
 21
12.3705801584
  0
LINE
  5
2DE
100
AcDbEntity
  8
0
100
AcDbLine
 62
7
  6
BYLAYER
 10
6.859379674
 20
12.3705801584
 11
6.8583251895
 21
12.412752381
  0
LINE
  5
2DF
100
AcDbEntity
  8
0
100
AcDbLine
 62
7
  6
BYLAYER
 10
6.8583251895
 20
12.412752381
 11
6.8572008268
 21
12.4602381545
  0
LINE
  5
2E0
100
AcDbEntity
  8
0
100
AcDbLine
 62
7
  6
BYLAYER
 10
6.8572008268
 20
12.4602381545
 11
6.8559987483
 21
12.5133880425
  0
LINE
  5
2E1
100
AcDbEntity
  8
0
100
AcDbLine
 62
7
  6
BYLAYER
 10
6.8559987483
 20
12.5133880425
 11
6.8544415544
 21
12.5850528825
  0
LINE
  5
2E2
100
AcDbEntity
  8
0
100
AcDbLine
 62
7
  6
BYLAYER
 10
6.8544415544
 20
12.5850528825
 11
6.8521370787
 21
12.6947496264
  0
LINE
  5
2E3
100
AcDbEntity
  8
0
100
AcDbLine
 62
7
  6
BYLAYER
 10
6.8521370787
 20
12.6947496264
 11
6.8497722111
 21
12.8087113165
  0
LINE
  5
2E4
100
AcDbEntity
  8
0
100
AcDbLine
 62
7
  6
BYLAYER
 10
6.8242857143
 20
13.3094105262
 11
6.8242857143
 21
12.524716445
  0
LINE
  5
2E5
100
AcDbEntity
  8
0
100
AcDbLine
 62
7
  6
BYLAYER
 10
6.9056153079
 20
13.4693126964
 11
6.9064326073
 21
13.4950539012
  0
LINE
  5
2E6
100
AcDbEntity
  8
0
100
AcDbLine
 62
7
  6
BYLAYER
 10
6.9064326073
 20
13.4950539012
 11
6.9068872595
 21
13.5087846094
  0
LINE
  5
2E7
100
AcDbEntity
  8
0
100
AcDbLine
 62
7
  6
BYLAYER
 10
6.9285714286
 20
12.5666441916
 11
6.9285714286
 21
12.7943187143
  0
LINE
  5
2E8
100
AcDbEntity
  8
0
100
AcDbLine
 62
7
  6
BYLAYER
 10
6.9285714286
 20
12.9728901429
 11
6.9285714286
 21
13.2005646655
  0
LINE
  5
2E9
100
AcDbEntity
  8
0
100
AcDbLine
 62
7
  6
BYLAYER
 10
6.9015279535
 20
13.3221224313
 11
6.9019442354
 21
13.3384104587
  0
LINE
  5
2EA
100
AcDbEntity
  8
0
100
AcDbLine
 62
7
  6
BYLAYER
 10
6.9053799086
 20
13.4616483362
 11
6.9056153079
 21
13.4693126964
  0
LINE
  5
2EB
100
AcDbEntity
  8
0
100
AcDbLine
 62
7
  6
BYLAYER
 10
6.8777597156
 20
12.2827967337
 11
6.8797067242
 21
12.3470021422
  0
LINE
  5
2EC
100
AcDbEntity
  8
0
100
AcDbLine
 62
7
  6
BYLAYER
 10
6.8764522099
 20
12.2454089421
 11
6.8777597156
 21
12.2827967337
  0
LINE
  5
2ED
100
AcDbEntity
  8
0
100
AcDbLine
 62
7
  6
BYLAYER
 10
6.8754270779
 20
12.2196190747
 11
6.8764522099
 21
12.2454089421
  0
LINE
  5
2EE
100
AcDbEntity
  8
0
100
AcDbLine
 62
7
  6
BYLAYER
 10
6.8746292285
 20
12.2018055237
 11
6.8754270779
 21
12.2196190747
  0
LINE
  5
2EF
100
AcDbEntity
  8
0
100
AcDbLine
 62
7
  6
BYLAYER
 10
6.8740181441
 20
12.1895382783
 11
6.8746292285
 21
12.2018055237
  0
LINE
  5
2F0
100
AcDbEntity
  8
0
100
AcDbLine
 62
7
  6
BYLAYER
 10
6.8735699768
 20
12.1813099542
 11
6.8740181441
 21
12.1895382783
  0
LINE
  5
2F1
100
AcDbEntity
  8
0
100
AcDbLine
 62
7
  6
BYLAYER
 10
6.8731255565
 20
12.173793182
 11
6.8735699768
 21
12.1813099542
  0
LINE
  5
2F2
100
AcDbEntity
  8
0
100
AcDbLine
 62
7
  6
BYLAYER
 10
6.872680398
 20
12.1669000063
 11
6.8731255565
 21
12.173793182
  0
LINE
  5
2F3
100
AcDbEntity
  8
0
100
AcDbLine
 62
7
  6
BYLAYER
 10
6.8723806845
 20
12.1626114452
 11
6.872680398
 21
12.1669000063
  0
LINE
  5
2F4
100
AcDbEntity
  8
0
100
AcDbLine
 62
7
  6
BYLAYER
 10
6.8720761133
 20
12.1585367058
 11
6.8723806845
 21
12.1626114452
  0
LINE
  5
2F5
100
AcDbEntity
  8
0
100
AcDbLine
 62
7
  6
BYLAYER
 10
6.8717636921
 20
12.1546444447
 11
6.8720761133
 21
12.1585367058
  0
LINE
  5
2F6
100
AcDbEntity
  8
0
100
AcDbLine
 62
7
  6
BYLAYER
 10
6.8714393173
 20
12.1508983222
 11
6.8717636921
 21
12.1546444447
  0
LINE
  5
2F7
100
AcDbEntity
  8
0
100
AcDbLine
 62
7
  6
BYLAYER
 10
6.9285714286
 20
12.5666441916
 11
6.8623046584
 21
12.2687815648
  0
LINE
  5
2F8
100
AcDbEntity
  8
0
100
AcDbLine
 62
7
  6
BYLAYER
 10
6.9285714286
 20
13.2005646655
 11
6.898303726
 21
13.3366150173
  0
LINE
  5
2F9
100
AcDbEntity
  8
0
100
AcDbLine
 62
7
  6
BYLAYER
 10
7.1785714286
 20
12.3836044286
 11
7.1785714286
 21
13.3836044286
  0
LINE
  5
2FA
100
AcDbEntity
  8
0
100
AcDbLine
 62
7
  6
BYLAYER
 10
7.2857142857
 20
12.3836044286
 11
7.2857142857
 21
13.3836044286
  0
LINE
  5
2FB
100
AcDbEntity
  8
0
100
AcDbLine
 62
7
  6
BYLAYER
 10
15.0978571429
 20
4.4220288571
 11
15.0978571429
 21
4.064886
  0
LINE
  5
2FC
100
AcDbEntity
  8
0
100
AcDbLine
 62
7
  6
BYLAYER
 10
15.1335714286
 20
4.0291717143
 11
15.1499791393
 21
4.0057812555
  0
LINE
  5
2FD
100
AcDbEntity
  8
0
100
AcDbLine
 62
7
  6
BYLAYER
 10
15.8835714286
 20
3.4934574286
 11
15.9995247481
 21
3.4934574286
  0
LINE
  5
2FE
100
AcDbEntity
  8
0
100
AcDbLine
 62
7
  6
BYLAYER
 10
17.3227440014
 20
3.4934574286
 11
17.3835714286
 21
3.4934574286
  0
LINE
  5
2FF
100
AcDbEntity
  8
0
100
AcDbLine
 62
7
  6
BYLAYER
 10
17.3835714286
 20
3.5206002857
 11
17.3547465234
 21
3.5206002857
  0
LINE
  5
300
100
AcDbEntity
  8
0
100
AcDbLine
 62
7
  6
BYLAYER
 10
15.9687646989
 20
3.5206002857
 11
15.8835714286
 21
3.5206002857
  0
LINE
  5
301
100
AcDbEntity
  8
0
100
AcDbLine
 62
7
  6
BYLAYER
 10
15.8835714286
 20
3.5206002857
 11
15.8835714286
 21
3.4934574286
  0
LINE
  5
302
100
AcDbEntity
  8
0
100
AcDbLine
 62
7
  6
BYLAYER
 10
15.6643442265
 20
4.4014930358
 11
15.1335714286
 21
4.0291717143
  0
LINE
  5
303
100
AcDbEntity
  8
0
100
AcDbLine
 62
7
  6
BYLAYER
 10
15.1499791393
 20
4.0057812555
 11
15.6587558208
 21
4.362672956
  0
LINE
  5
304
100
AcDbEntity
  8
0
100
AcDbLine
 62
7
  6
BYLAYER
 10
15.6752384903
 20
4.0291717143
 11
15.1833240446
 21
4.0291717143
  0
LINE
  5
305
100
AcDbEntity
  8
0
100
AcDbLine
 62
7
  6
BYLAYER
 10
17.3137453785
 20
4.2434574286
 11
17.6807142857
 21
4.2434574286
  0
LINE
  5
306
100
AcDbEntity
  8
0
100
AcDbLine
 62
7
  6
BYLAYER
 10
15.1335714286
 20
4.4577431429
 11
15.675136536
 21
4.4577431429
  0
LINE
  5
307
100
AcDbEntity
  8
0
100
AcDbLine
 62
7
  6
BYLAYER
 10
17.045
 20
5.144886
 11
17.045
 21
5.2434574286
  0
LINE
  5
308
100
AcDbEntity
  8
0
100
AcDbLine
 62
7
  6
BYLAYER
 10
17.2626988861
 20
4.7141437158
 11
17.2592857143
 21
5.144886
  0
LINE
  5
309
100
AcDbEntity
  8
0
100
AcDbLine
 62
7
  6
BYLAYER
 10
17.3835714286
 20
3.4934574286
 11
17.3835714286
 21
3.5206002857
  0
LINE
  5
30A
100
AcDbEntity
  8
0
100
AcDbLine
 62
7
  6
BYLAYER
 10
17.9021428571
 20
5.144886
 11
17.045
 21
5.144886
  0
LINE
  5
30B
100
AcDbEntity
  8
0
100
AcDbLine
 62
7
  6
BYLAYER
 10
17.9021428571
 20
5.2434574286
 11
17.045
 21
5.2434574286
  0
LINE
  5
30C
100
AcDbEntity
  8
0
100
AcDbLine
 62
7
  6
BYLAYER
 10
17.6807142857
 20
4.2434574286
 11
17.6878571429
 21
5.144886
  0
LINE
  5
30D
100
AcDbEntity
  8
0
100
AcDbLine
 62
7
  6
BYLAYER
 10
17.9021428571
 20
5.144886
 11
17.9021428571
 21
5.2434574286
  0
LINE
  5
30E
100
AcDbEntity
  8
0
100
AcDbLine
 62
7
  6
BYLAYER
 10
15.6035341721
 20
11.2950195541
 11
15.6146409955
 21
11.2933324131
  0
LINE
  5
30F
100
AcDbEntity
  8
0
100
AcDbLine
 62
7
  6
BYLAYER
 10
15.905142657
 20
11.2815056244
 11
15.641982373
 21
11.2815056244
  0
LINE
  5
310
100
AcDbEntity
  8
0
100
AcDbLine
 62
7
  6
BYLAYER
 10
15.6146409955
 20
11.2933324131
 11
15.6155091644
 21
11.2933324131
  0
LINE
  5
311
100
AcDbEntity
  8
0
100
AcDbLine
 62
7
  6
BYLAYER
 10
15.9315908878
 20
11.2933324131
 11
15.976486386
 21
11.2933324131
  0
LINE
  5
312
100
AcDbEntity
  8
0
100
AcDbLine
 62
7
  6
BYLAYER
 10
15.6035341721
 20
11.2950195541
 11
15.6141367457
 21
11.2950195541
  0
LINE
  5
313
100
AcDbEntity
  8
0
100
AcDbLine
 62
7
  6
BYLAYER
 10
15.9329711344
 20
11.2950195541
 11
15.9653795626
 21
11.2950195541
  0
LINE
  5
314
100
AcDbEntity
  8
0
100
AcDbLine
 62
7
  6
BYLAYER
 10
15.9653795626
 20
11.2950195541
 11
15.976486386
 21
11.2933324131
  0
LINE
  5
315
100
AcDbEntity
  8
0
100
AcDbLine
 62
7
  6
BYLAYER
 10
15.6099205282
 20
11.3014862419
 11
15.5009770044
 21
11.523489802
  0
LINE
  5
316
100
AcDbEntity
  8
0
100
AcDbLine
 62
7
  6
BYLAYER
 10
16.0143062224
 20
11.5495093962
 11
16.6228474281
 21
11.5495093962
  0
LINE
  5
317
100
AcDbEntity
  8
0
100
AcDbLine
 62
7
  6
BYLAYER
 10
16.0195201484
 20
11.5663816668
 11
16.6145677203
 21
11.5663816668
  0
LWPOLYLINE
  5
318
100
AcDbEntity
  8
0
100
AcDbPolyline
 62
7
  6
BYLAYER
 90
29
 70
0
 10
17.6800841207
 20
11.6970577175
 10
17.6946134146
 20
11.6974245626
 10
17.7112033748
 20
11.6987410248
 10
17.7277442582
 20
11.7010099199
 10
17.7442493472
 20
11.7042366053
 10
17.7607048965
 20
11.7084292653
 10
17.7771426285
 20
11.7136158611
 10
17.7935906652
 20
11.7198354998
 10
17.8100456138
 20
11.7271240157
 10
17.8265197172
 20
11.7355336351
 10
17.8429945381
 20
11.7451109801
 10
17.8594620826
 20
11.7559152931
 10
17.8759141264
 20
11.7680144314
 10
17.8923961759
 20
11.7815288996
 10
17.9087441566
 20
11.7964066165
 10
17.9248603602
 20
11.8126175399
 10
17.9406591935
 20
11.8301170077
 10
17.9560529359
 20
11.8488290412
 10
17.9710132619
 20
11.86872553
 10
17.9854982624
 20
11.8897470617
 10
17.9994863797
 20
11.9118468407
 10
18.0129499644
 20
11.9349553659
 10
18.0258732445
 20
11.9590106482
 10
18.0382325976
 20
11.9839240914
 10
18.0500307558
 20
12.0096499173
 10
18.061263133
 20
12.0361239714
 10
18.0719256577
 20
12.063277386
 10
18.0820129901
 20
12.0910309481
 10
18.0861486419
 20
12.1033272414
  0
LINE
  5
319
100
AcDbEntity
  8
0
100
AcDbLine
 62
7
  6
BYLAYER
 10
14.9834960525
 20
11.7639263403
 11
15.5650966028
 21
11.7639263403
  0
LINE
  5
31A
100
AcDbEntity
  8
0
100
AcDbLine
 62
7
  6
BYLAYER
 10
16.0805660696
 20
11.7639263403
 11
16.6948602744
 21
11.7639263403
  0
LINE
  5
31B
100
AcDbEntity
  8
03___PRT_ALL_CURVES
100
AcDbLine
 62
7
  6
BYLAYER
 10
17.6798733764
 20
11.6970578853
 11
17.6800835965
 21
11.6970577175
  0
LINE
  5
31C
100
AcDbEntity
  8
0
100
AcDbLine
 62
7
  6
BYLAYER
 10
17.4264099086
 20
11.6357713965
 11
17.6147621239
 21
11.6215774405
  0
LINE
  5
31D
100
AcDbEntity
  8
0
100
AcDbLine
 62
7
  6
BYLAYER
 10
15.6216317981
 20
12.0806662468
 11
15.6183016178
 21
11.9360978321
  0
LINE
  5
31E
100
AcDbEntity
  8
0
100
AcDbLine
 62
7
  6
BYLAYER
 10
15.6039627965
 20
11.3136268226
 11
15.6035341721
 21
11.2950195541
  0
LINE
  5
31F
100
AcDbEntity
  8
0
100
AcDbLine
 62
7
  6
BYLAYER
 10
16.7803873667
 20
11.8268727689
 11
16.6948602744
 21
11.8268727689
  0
LINE
  5
320
100
AcDbEntity
  8
0
100
AcDbLine
 62
7
  6
BYLAYER
 10
16.9045661257
 20
11.8688370546
 11
16.8190390334
 21
11.8688370546
  0
LINE
  5
321
100
AcDbEntity
  8
0
100
AcDbLine
 62
7
  6
BYLAYER
 10
15.6700377419
 20
12.0400065428
 11
15.9331980259
 21
12.0400065428
  0
LINE
  5
322
100
AcDbEntity
  8
0
100
AcDbLine
 62
7
  6
BYLAYER
 10
15.6216317981
 20
12.0806662468
 11
15.9834771886
 21
12.0806662468
  0
LINE
  5
323
100
AcDbEntity
  8
0
100
AcDbLine
 62
7
  6
BYLAYER
 10
15.6888146339
 20
12.1007685877
 11
15.9519749179
 21
12.1007685877
  0
LINE
  5
324
100
AcDbEntity
  8
0
100
AcDbLine
 62
7
  6
BYLAYER
 10
18.0887874037
 20
12.1032120546
 11
18.1874725102
 21
12.1032120546
  0
LINE
  5
325
100
AcDbEntity
  8
0
100
AcDbLine
 62
7
  6
BYLAYER
 10
15.994584012
 20
12.0789791058
 11
15.9834771886
 21
12.0806662468
  0
LINE
  5
326
100
AcDbEntity
  8
0
100
AcDbLine
 62
7
  6
BYLAYER
 10
16.868967223
 20
11.9533603372
 11
16.9342870898
 21
11.9297645308
  0
LINE
  5
327
100
AcDbEntity
  8
0
100
AcDbLine
 62
7
  6
BYLAYER
 10
15.9646629767
 20
11.9779242938
 11
15.9503621296
 21
11.3571018032
  0
LINE
  5
328
100
AcDbEntity
  8
0
100
AcDbLine
 62
7
  6
BYLAYER
 10
15.9834771886
 20
12.0806662468
 11
15.9653795626
 21
11.2950195541
  0
LINE
  5
329
100
AcDbEntity
  8
0
100
AcDbLine
 62
7
  6
BYLAYER
 10
15.976486386
 20
11.2933324131
 11
15.994584012
 21
12.0789791058
  0
LINE
  5
32A
100
AcDbEntity
  8
0
100
AcDbLine
 62
7
  6
BYLAYER
 10
15.6644439644
 20
12.0854145204
 11
15.6629766369
 21
12.0806662468
  0
LINE
  5
32B
100
AcDbEntity
  8
0
100
AcDbLine
 62
7
  6
BYLAYER
 10
15.6403392475
 20
12.0074116279
 11
15.4989166762
 21
11.5497680192
  0
LINE
  5
32C
100
AcDbEntity
  8
0
100
AcDbLine
 62
7
  6
BYLAYER
 10
17.9360157848
 20
12.2934006724
 11
17.863087788
 21
12.2864687294
  0
LINE
  5
32D
100
AcDbEntity
  8
0
100
AcDbLine
 62
7
  6
BYLAYER
 10
16.868967223
 20
13.2530637721
 11
17.210899449
 21
13.3765815775
  0
LINE
  5
32E
100
AcDbEntity
  8
0
100
AcDbLine
 62
7
  6
BYLAYER
 10
16.6145677203
 20
11.5663816668
 11
16.6228474281
 21
11.5495093962
  0
LINE
  5
32F
100
AcDbEntity
  8
0
100
AcDbLine
 62
7
  6
BYLAYER
 10
16.1047921182
 20
11.8423218623
 11
15.9798165662
 21
11.4379008278
  0
LINE
  5
330
100
AcDbEntity
  8
0
100
AcDbLine
 62
7
  6
BYLAYER
 10
15.9457355037
 20
11.327614469
 11
15.93926483
 21
11.3066753611
  0
LINE
  5
331
100
AcDbEntity
  8
0
100
AcDbLine
 62
7
  6
BYLAYER
 10
17.9013722103
 20
12.7384034415
 11
17.7311419025
 21
12.7384034415
  0
LINE
  5
332
100
AcDbEntity
  8
0
100
AcDbLine
 62
7
  6
BYLAYER
 10
17.9262065797
 20
12.8782832468
 11
17.7743680316
 21
12.8782832468
  0
LINE
  5
333
100
AcDbEntity
  8
0
100
AcDbLine
 62
7
  6
BYLAYER
 10
16.8117784768
 20
11.8311329051
 11
16.8122792945
 21
11.8199600392
  0
LINE
  5
334
100
AcDbEntity
  8
0
100
AcDbLine
 62
7
  6
BYLAYER
 10
17.9359737991
 20
12.9130274276
 11
17.863087788
 21
12.9199553799
  0
LINE
  5
335
100
AcDbEntity
  8
0
100
AcDbLine
 62
7
  6
BYLAYER
 10
16.6756136415
 20
11.7639263403
 11
16.6145677203
 21
11.5663816668
  0
LINE
  5
336
100
AcDbEntity
  8
0
100
AcDbLine
 62
7
  6
BYLAYER
 10
16.6228474281
 20
11.5495093962
 11
16.6891072753
 21
11.7639263403
  0
LINE
  5
337
100
AcDbEntity
  8
0
100
AcDbLine
 62
7
  6
BYLAYER
 10
18.0887874037
 20
13.1032120546
 11
18.1874725102
 21
13.1032120546
  0
LINE
  5
338
100
AcDbEntity
  8
0
100
AcDbLine
 62
7
  6
BYLAYER
 10
16.9045661257
 20
13.3375870546
 11
16.8190390334
 21
13.3375870546
  0
LINE
  5
339
100
AcDbEntity
  8
0
100
AcDbLine
 62
7
  6
BYLAYER
 10
16.7803873667
 20
13.3795513403
 11
16.6948602744
 21
13.3795513403
  0
LINE
  5
33A
100
AcDbEntity
  8
0
100
AcDbLine
 62
7
  6
BYLAYER
 10
17.6611519422
 20
13.3889263403
 11
17.7624686515
 21
13.3889263403
  0
LINE
  5
33B
100
AcDbEntity
  8
0
100
AcDbLine
 62
7
  6
BYLAYER
 10
16.97152384
 20
11.9231345076
 11
17.0781204435
 21
12.268081243
  0
LINE
  5
33C
100
AcDbEntity
  8
0
100
AcDbLine
 62
7
  6
BYLAYER
 10
14.9834960525
 20
13.4424977689
 11
16.6948602744
 21
13.4424977689
  0
LINE
  5
33D
100
AcDbEntity
  8
0
100
AcDbLine
 62
7
  6
BYLAYER
 10
17.17470365
 20
13.6940126089
 11
17.2047720626
 21
13.6327396263
  0
LINE
  5
33E
100
AcDbEntity
  8
0
100
AcDbLine
 62
7
  6
BYLAYER
 10
17.9487869418
 20
13.136950136
 11
17.9487423793
 21
13.1360106128
  0
LINE
  5
33F
100
AcDbEntity
  8
0
100
AcDbLine
 62
7
  6
BYLAYER
 10
17.6131108704
 20
13.5023872285
 11
17.6697046076
 21
13.3889263403
  0
LINE
  5
340
100
AcDbEntity
  8
02___PRT_ALL_AXES
100
AcDbLine
 62
7
  6
BYLAYER
 10
17.8976197885
 20
13.6731330208
 11
18.0509836281
 21
13.3513510562
  0
LWPOLYLINE
  5
341
100
AcDbEntity
  8
0
100
AcDbPolyline
 62
7
  6
BYLAYER
 90
10
 70
0
 10
18.1318451901
 20
13.1032120546
 10
18.1270968622
 20
13.1244617791
 10
18.1198000719
 20
13.1541927279
 10
18.1119059133
 20
13.1835615314
 10
18.1033901585
 20
13.2125477529
 10
18.0942250112
 20
13.2411279796
 10
18.0843781272
 20
13.2692770776
 10
18.0738084903
 20
13.2969763508
 10
18.0624605395
 20
13.3242210087
 10
18.0563490623
 20
13.3376657587
  0
LINE
  5
342
100
AcDbEntity
  8
0
100
AcDbLine
 62
7
  6
BYLAYER
 10
17.9441879244
 20
14.0716206451
 11
17.974256337
 21
14.0103476625
  0
ARC
  5
343
100
AcDbEntity
  8
0
100
AcDbCircle
 62
7
  6
BYLAYER
 10
3.7857142857
 20
3.5370207143
 40
0.0714285714
100
AcDbArc
 50
180.0
 51
187.5418309978
  0
ARC
  5
344
100
AcDbEntity
  8
0
100
AcDbCircle
 62
7
  6
BYLAYER
 10
3.7857142857
 20
4.9468421429
 40
0.0714285714
100
AcDbArc
 50
90.0
 51
180.0
  0
ARC
  5
345
100
AcDbEntity
  8
0
100
AcDbCircle
 62
7
  6
BYLAYER
 10
6.6785714286
 20
5.18836
 40
0.0357142857
100
AcDbArc
 50
0.0
 51
93.968820284
  0
ARC
  5
346
100
AcDbEntity
  8
0
100
AcDbCircle
 62
7
  6
BYLAYER
 10
6.6785714286
 20
3.2955028571
 40
0.0357142857
100
AcDbArc
 50
266.0311797159
 51
330.117147916
  0
ARC
  5
347
100
AcDbEntity
  8
0
100
AcDbCircle
 62
7
  6
BYLAYER
 10
4.8571428571
 20
4.4205028571
 40
0.0357142857
100
AcDbArc
 50
90.0
 51
180.0
  0
ARC
  5
348
100
AcDbEntity
  8
0
100
AcDbCircle
 62
7
  6
BYLAYER
 10
5.1428571429
 20
4.4205028571
 40
0.0357142857
100
AcDbArc
 50
0.0
 51
90.0
  0
ARC
  5
349
100
AcDbEntity
  8
0
100
AcDbCircle
 62
7
  6
BYLAYER
 10
4.8571428571
 20
4.06336
 40
0.0357142857
100
AcDbArc
 50
180.0
 51
270.0
  0
ARC
  5
34A
100
AcDbEntity
  8
0
100
AcDbCircle
 62
7
  6
BYLAYER
 10
5.1428571429
 20
4.06336
 40
0.0357142857
100
AcDbArc
 50
270.0
 51
360.0
  0
ARC
  5
34B
100
AcDbEntity
  8
0
100
AcDbCircle
 62
7
  6
BYLAYER
 10
5.414349373
 20
12.8836044286
 40
1.5113173184
100
AcDbArc
 50
356.6131119502
 51
3.3868880498
  0
CIRCLE
  5
34C
100
AcDbEntity
  8
0
100
AcDbCircle
 62
7
  6
BYLAYER
 10
6.7142857143
 20
13.7236044286
 40
0.4285714286
  0
CIRCLE
  5
34D
100
AcDbEntity
  8
03___PRT_ALL_CURVES
100
AcDbCircle
 62
7
  6
BYLAYER
 10
6.7142857143
 20
13.7236044286
 40
0.3392857143
  0
CIRCLE
  5
34E
100
AcDbEntity
  8
0
100
AcDbCircle
 62
7
  6
BYLAYER
 10
6.7142857143
 20
13.7236044286
 40
0.1428571429
  0
CIRCLE
  5
34F
100
AcDbEntity
  8
0
100
AcDbCircle
 62
7
  6
BYLAYER
 10
6.7142857143
 20
13.7236044286
 40
0.1349332126
  0
ARC
  5
350
100
AcDbEntity
  8
0
100
AcDbCircle
 62
7
  6
BYLAYER
 10
3.7857142857
 20
13.5885151429
 40
0.0714285714
100
AcDbArc
 50
90.0
 51
180.0
  0
ARC
  5
351
100
AcDbEntity
  8
0
100
AcDbCircle
 62
7
  6
BYLAYER
 10
3.7857142857
 20
12.1786937143
 40
0.0714285714
100
AcDbArc
 50
180.0
 51
270.0
  0
CIRCLE
  5
352
100
AcDbEntity
  8
02___PRT_ALL_AXES
100
AcDbCircle
 62
7
  6
BYLAYER
 10
6.9541969436
 20
13.4836931992
 40
0.0535714286
  0
CIRCLE
  5
353
100
AcDbEntity
  8
02___PRT_ALL_AXES
100
AcDbCircle
 62
7
  6
BYLAYER
 10
6.474374485
 20
13.4836931992
 40
0.0535714286
  0
CIRCLE
  5
354
100
AcDbEntity
  8
02___PRT_ALL_AXES
100
AcDbCircle
 62
7
  6
BYLAYER
 10
6.474374485
 20
13.9635156579
 40
0.0535714286
  0
CIRCLE
  5
355
100
AcDbEntity
  8
02___PRT_ALL_AXES
100
AcDbCircle
 62
7
  6
BYLAYER
 10
6.9541969436
 20
13.9635156579
 40
0.0535714286
  0
ARC
  5
356
100
AcDbEntity
  8
0
100
AcDbCircle
 62
7
  6
BYLAYER
 10
6.6785714286
 20
11.9371758571
 40
0.0357142857
100
AcDbArc
 50
266.0311797159
 51
360.0
  0
ARC
  5
357
100
AcDbEntity
  8
0
100
AcDbCircle
 62
7
  6
BYLAYER
 10
5.1428571429
 20
11.3836044286
 40
0.0357142857
100
AcDbArc
 50
270.0
 51
360.0
  0
ARC
  5
358
100
AcDbEntity
  8
0
100
AcDbCircle
 62
7
  6
BYLAYER
 10
4.8571428571
 20
11.3836044286
 40
0.0357142857
100
AcDbArc
 50
180.0
 51
270.0
  0
CIRCLE
  5
359
100
AcDbEntity
  8
02___PRT_ALL_AXES
100
AcDbCircle
 62
7
  6
BYLAYER
 10
7.0714285714
 20
12.8836044286
 40
0.0351142857
  0
CIRCLE
  5
35A
100
AcDbEntity
  8
02___PRT_ALL_AXES
100
AcDbCircle
 62
7
  6
BYLAYER
 10
7.0714285714
 20
12.8836044286
 40
0.0333799407
  0
ARC
  5
35B
100
AcDbEntity
  8
0
100
AcDbCircle
 62
7
  6
BYLAYER
 10
16.6335714286
 20
4.2434574286
 40
0.9821428571
100
AcDbArc
 50
50.3372535181
 51
283.0437747307
  0
ARC
  5
35C
100
AcDbEntity
  8
0
100
AcDbCircle
 62
7
  6
BYLAYER
 10
16.7118296253
 20
4.2434574286
 40
0.967456089
100
AcDbArc
 50
180.0000000001
 51
359.9999999999
  0
ARC
  5
35D
100
AcDbEntity
  8
03___PRT_ALL_CURVES
100
AcDbCircle
 62
7
  6
BYLAYER
 10
16.7118296253
 20
4.2434574286
 40
0.967456089
100
AcDbArc
 50
180.0
 51
360.0
  0
ARC
  5
35E
100
AcDbEntity
  8
0
100
AcDbCircle
 62
7
  6
BYLAYER
 10
16.5488473796
 20
4.2434574286
 40
0.8044738433
100
AcDbArc
 50
74.2466979653
 51
180.0000000001
  0
ARC
  5
35F
100
AcDbEntity
  8
03___PRT_ALL_CURVES
100
AcDbCircle
 62
7
  6
BYLAYER
 10
16.5488473796
 20
4.2434574286
 40
0.8044738433
100
AcDbArc
 50
74.2466719226
 51
180.0
  0
ARC
  5
360
100
AcDbEntity
  8
0
100
AcDbCircle
 62
7
  6
BYLAYER
 10
16.6335714286
 20
4.2434574286
 40
0.7857142857
100
AcDbArc
 50
32.7911911273
 51
117.1786532487
  0
ARC
  5
361
100
AcDbEntity
  8
0
100
AcDbCircle
 62
7
  6
BYLAYER
 10
16.4855648948
 20
4.3051478916
 40
0.6712559935
100
AcDbArc
 50
101.0811624033
 51
108.3100812641
  0
CIRCLE
  5
362
100
AcDbEntity
  8
0
100
AcDbCircle
 62
7
  6
BYLAYER
 10
16.6335714286
 20
4.2434574286
 40
0.5
  0
ARC
  5
363
100
AcDbEntity
  8
03___PRT_ALL_CURVES
100
AcDbCircle
 62
7
  6
BYLAYER
 10
16.6335714286
 20
4.2434574286
 40
0.3928571429
100
AcDbArc
 50
217.1804549777
 51
232.8183196064
  0
ARC
  5
364
100
AcDbEntity
  8
03___PRT_ALL_CURVES
100
AcDbCircle
 62
7
  6
BYLAYER
 10
16.6335714286
 20
4.2434574286
 40
0.3928571429
100
AcDbArc
 50
307.1816803936
 51
322.8195450223
  0
ARC
  5
365
100
AcDbEntity
  8
03___PRT_ALL_CURVES
100
AcDbCircle
 62
7
  6
BYLAYER
 10
16.6335714286
 20
4.2434574286
 40
0.3928571429
100
AcDbArc
 50
37.1804549777
 51
52.8183196064
  0
ARC
  5
366
100
AcDbEntity
  8
03___PRT_ALL_CURVES
100
AcDbCircle
 62
7
  6
BYLAYER
 10
16.6335714286
 20
4.2434574286
 40
0.3928571429
100
AcDbArc
 50
127.1816803936
 51
142.8195450223
  0
CIRCLE
  5
367
100
AcDbEntity
  8
0
100
AcDbCircle
 62
7
  6
BYLAYER
 10
16.6335714286
 20
4.2434574286
 40
0.185
  0
CIRCLE
  5
368
100
AcDbEntity
  8
02___PRT_ALL_AXES
100
AcDbCircle
 62
7
  6
BYLAYER
 10
16.9113633783
 20
4.5212493783
 40
0.0535714286
  0
CIRCLE
  5
369
100
AcDbEntity
  8
02___PRT_ALL_AXES
100
AcDbCircle
 62
7
  6
BYLAYER
 10
16.3557794788
 20
4.5212493783
 40
0.0535714286
  0
CIRCLE
  5
36A
100
AcDbEntity
  8
02___PRT_ALL_AXES
100
AcDbCircle
 62
7
  6
BYLAYER
 10
16.3557794788
 20
3.9656654788
 40
0.0535714286
  0
CIRCLE
  5
36B
100
AcDbEntity
  8
02___PRT_ALL_AXES
100
AcDbCircle
 62
7
  6
BYLAYER
 10
16.9113633783
 20
3.9656654788
 40
0.0535714286
  0
ARC
  5
36C
100
AcDbEntity
  8
0
100
AcDbCircle
 62
7
  6
BYLAYER
 10
15.1335714286
 20
4.4220288571
 40
0.0357142857
100
AcDbArc
 50
90.0
 51
180.0
  0
ARC
  5
36D
100
AcDbEntity
  8
0
100
AcDbCircle
 62
7
  6
BYLAYER
 10
15.1335714286
 20
4.064886
 40
0.0357142857
100
AcDbArc
 50
180.0
 51
270.0
  0
ARC
  5
36E
100
AcDbEntity
  8
0
100
AcDbCircle
 62
7
  6
BYLAYER
 10
17.9535973378
 20
13.3049355414
 40
0.1078817934
100
AcDbArc
 50
24.9310423812
 51
25.4834815047
  0
ARC
  5
36F
100
AcDbEntity
  8
0
100
AcDbCircle
 62
7
  6
BYLAYER
 10
15.6421071624
 20
11.3173066946
 40
0.0358645528
100
AcDbArc
 50
206.1751517592
 51
223.4579710998
  0
ARC
  5
370
100
AcDbEntity
  8
0
100
AcDbCircle
 62
7
  6
BYLAYER
 10
15.6419854457
 20
11.3172852436
 40
0.0357796162
100
AcDbArc
 50
268.421787177
 51
269.9962773672
  0
ARC
  5
371
100
AcDbEntity
  8
0
100
AcDbCircle
 62
7
  6
BYLAYER
 10
15.6419912577
 20
11.3172530328
 40
0.0357475783
100
AcDbArc
 50
241.1139780669
 51
268.4110534959
  0
ARC
  5
372
100
AcDbEntity
  8
0
100
AcDbCircle
 62
7
  6
BYLAYER
 10
15.5330657988
 20
11.5392254493
 40
0.0357396395
100
AcDbArc
 50
162.8318919491
 51
206.1057902007
  0
ARC
  5
373
100
AcDbEntity
  8
0
100
AcDbCircle
 62
7
  6
BYLAYER
 10
15.9051425301
 20
11.3172202531
 40
0.0357146166
100
AcDbArc
 50
270.0002034834
 51
342.8242883587
  0
ARC
  5
374
100
AcDbEntity
  8
0
100
AcDbCircle
 62
7
  6
BYLAYER
 10
15.6419641659
 20
11.3171963548
 40
0.0356848651
100
AcDbArc
 50
223.48729414
 51
241.108104419
  0
LINE
  5
375
100
AcDbEntity
  8
0
100
AcDbLine
 62
7
  6
BYLAYER
 10
6.9230306748
 20
4.5719314286
 11
6.9285714286
 21
4.5460561613
  0
SPLINE
  5
376
100
AcDbEntity
  8
0
100
AcDbSpline
 62
7
  6
BYLAYER
 70
0
 71
3
 72
25
 73
21
 74
0
 42
0.0000001
 43
0.0000001
 44
0.0000000001
 40
0.0
 40
0.0
 40
0.0
 40
0.0
 40
0.0432736853
 40
0.0605573892
 40
0.0752799117
 40
0.0878058573
 40
0.0986519179
 40
0.1085340849
 40
0.1183266623
 40
0.1288829584
 40
0.1408619619
 40
0.1705964731
 40
0.2094130097
 40
0.2579322046
 40
0.3163598805
 40
0.3847348009
 40
0.4630192306
 40
0.5511395338
 40
0.7565049428
 40
1.0
 40
1.0
 40
1.0
 40
1.0
 10
6.8352677395
 20
4.9712617614
 30
0.0
 10
6.8350117143
 20
4.9717671502
 30
0.0
 10
6.83462244
 20
4.9724621507
 30
0.0
 10
6.8340249564
 20
4.9732479396
 30
0.0
 10
6.8336179496
 20
4.9736679535
 30
0.0
 10
6.8332153825
 20
4.9739672368
 30
0.0
 10
6.8328134502
 20
4.9741462499
 30
0.0
 10
6.8324112377
 20
4.9742005247
 30
0.0
 10
6.8320159234
 20
4.974127452
 30
0.0
 10
6.8316341969
 20
4.9739343078
 30
0.0
 10
6.8311039209
 20
4.9734953245
 30
0.0
 10
6.8304784133
 20
4.9726310364
 30
0.0
 10
6.8297980197
 20
4.9712554979
 30
0.0
 10
6.8291314629
 20
4.9694642823
 30
0.0
 10
6.8284786212
 20
4.9672628253
 30
0.0
 10
6.8278388697
 20
4.9646543103
 30
0.0
 10
6.8272120389
 20
4.9616447143
 30
0.0
 10
6.8263487595
 20
4.9568542
 30
0.0
 10
6.8253285557
 20
4.9498968358
 30
0.0
 10
6.8246337331
 20
4.9440611233
 30
0.0
 10
6.8242857143
 20
4.9408923388
 30
0.0
  0
SPLINE
  5
377
100
AcDbEntity
  8
0
100
AcDbSpline
 62
7
  6
BYLAYER
 70
0
 71
3
 72
16
 73
12
 74
0
 42
0.0000001
 43
0.0000001
 44
0.0000000001
 40
0.0
 40
0.0
 40
0.0
 40
0.0
 40
0.1763090814
 40
0.2586761918
 40
0.3371665968
 40
0.4825607822
 40
0.6127374358
 40
0.7282071289
 40
0.8299340646
 40
0.9195991569
 40
1.0
 40
1.0
 40
1.0
 40
1.0
 10
6.8242857143
 20
4.9408923388
 30
0.0
 10
6.8232845715
 20
4.9461047739
 30
0.0
 10
6.8217106478
 20
4.953733258
 30
0.0
 10
6.8193861084
 20
4.9636143629
 30
0.0
 10
6.8170922279
 20
4.9725444854
 30
0.0
 10
6.814097411
 20
4.9827790042
 30
0.0
 10
6.810135546
 20
4.9938734948
 30
0.0
 10
6.8058705431
 20
5.0034360682
 30
0.0
 10
6.8012533389
 20
5.0114630026
 30
0.0
 10
6.7962162651
 20
5.0179508634
 30
0.0
 10
6.7923449252
 20
5.0213708867
 30
0.0
 10
6.7903496629
 20
5.0227410769
 30
0.0
  0
SPLINE
  5
378
100
AcDbEntity
  8
0
100
AcDbSpline
 62
7
  6
BYLAYER
 70
0
 71
3
 72
15
 73
11
 74
0
 42
0.0000001
 43
0.0000001
 44
0.0000000001
 40
0.0
 40
0.0
 40
0.0
 40
0.0
 40
0.1860389479
 40
0.3545603001
 40
0.5054681924
 40
0.638751941
 40
0.7544834401
 40
0.8528664616
 40
0.9343692995
 40
1.0
 40
1.0
 40
1.0
 40
1.0
 10
6.7142857143
 20
3.3209510144
 30
0.0
 10
6.7142857143
 20
3.3182356899
 30
0.0
 10
6.7142472952
 20
3.3130605658
 30
0.0
 10
6.7140504232
 20
3.3056850955
 30
0.0
 10
6.7137138513
 20
3.2990853176
 30
0.0
 10
6.7132324886
 20
3.2932667875
 30
0.0
 10
6.7126010744
 20
3.2882340454
 30
0.0
 10
6.711812177
 20
3.2839878096
 30
0.0
 10
6.7108578042
 20
3.2805295704
 30
0.0
 10
6.7100146018
 20
3.2785395496
 30
0.0
 10
6.7095373564
 20
3.27770899
 30
0.0
  0
LINE
  5
379
100
AcDbEntity
  8
0
100
AcDbLine
 62
7
  6
BYLAYER
 10
7.1785714286
 20
4.5231875946
 11
6.9285714286
 21
4.5460561613
  0
SPLINE
  5
37A
100
AcDbEntity
  8
0
100
AcDbSpline
 62
7
  6
BYLAYER
 70
0
 71
3
 72
9
 73
5
 74
0
 42
0.0000001
 43
0.0000001
 44
0.0000000001
 40
0.0
 40
0.0
 40
0.0
 40
0.0
 40
0.4999985912
 40
1.0
 40
1.0
 40
1.0
 40
1.0
 10
5.9651785706
 20
12.3514325205
 30
0.0
 10
6.0369705834
 20
12.3212047673
 30
0.0
 10
6.1812542457
 20
12.2624073721
 30
0.0
 10
6.3263932036
 20
12.2057761298
 30
0.0
 10
6.3991071369
 20
12.1778375818
 30
0.0
  0
SPLINE
  5
37B
100
AcDbEntity
  8
0
100
AcDbSpline
 62
7
  6
BYLAYER
 70
0
 71
3
 72
9
 73
5
 74
0
 42
0.0000001
 43
0.0000001
 44
0.0000000001
 40
0.0
 40
0.0
 40
0.0
 40
0.0
 40
0.499999322
 40
1.0
 40
1.0
 40
1.0
 40
1.0
 10
5.9651785706
 20
13.4157763366
 30
0.0
 10
6.0237593083
 20
13.4404415329
 30
0.0
 10
6.1413898874
 20
13.4886604467
 30
0.0
 10
6.2596438601
 20
13.5353184061
 30
0.0
 10
6.3188819261
 20
13.5583607191
 30
0.0
  0
SPLINE
  5
37C
100
AcDbEntity
  8
0
100
AcDbSpline
 62
7
  6
BYLAYER
 70
0
 71
3
 72
68
 73
64
 74
0
 42
0.0000001
 43
0.0000001
 44
0.0000000001
 40
0.0
 40
0.0
 40
0.0
 40
0.0
 40
0.0319523705
 40
0.0479264643
 40
0.0638900933
 40
0.0798330755
 40
0.0957400561
 40
0.103672828
 40
0.1115859971
 40
0.1194731948
 40
0.1273253352
 40
0.1351288815
 40
0.1428625549
 40
0.1466929018
 40
0.1504905814
 40
0.1542462289
 40
0.1579468659
 40
0.1615727223
 40
0.1650936383
 40
0.168461315
 40
0.171594143
 40
0.1743505087
 40
0.1755194197
 40
0.1765017199
 40
0.1772675332
 40
0.1775703196
 40
0.1778274191
 40
0.1780551818
 40
0.1782787123
 40
0.1787978895
 40
0.1794927834
 40
0.1803696977
 40
0.1814041835
 40
0.1825704879
 40
0.1838421805
 40
0.1852008707
 40
0.1881182168
 40
0.1912342871
 40
0.194493757
 40
0.1978607263
 40
0.2013115326
 40
0.2084010491
 40
0.2156745764
 40
0.2305900032
 40
0.2381790699
 40
0.2458337382
 40
0.2612990772
 40
0.2769262849
 40
0.2926780743
 40
0.324461537
 40
0.3565183616
 40
0.3887697027
 40
0.4211615164
 40
0.4536534619
 40
0.4862133085
 40
0.5514318058
 40
0.6166359109
 40
0.6816743074
 40
0.7464126795
 40
0.8107277007
 40
0.8745029132
 40
0.9376298731
 40
1.0
 40
1.0
 40
1.0
 40
1.0
 10
6.8497722115
 20
12.8087113169
 30
0.0
 10
6.8496742085
 20
12.8134171812
 30
0.0
 10
6.8495135987
 20
12.8204754054
 30
0.0
 10
6.8492628255
 20
12.8298836858
 30
0.0
 10
6.8490530388
 20
12.8369338576
 30
0.0
 10
6.8488171335
 20
12.843973316
 30
0.0
 10
6.848593494
 20
12.8498294499
 30
0.0
 10
6.8483936909
 20
12.8545026922
 30
0.0
 10
6.8482319655
 20
12.8579950729
 30
0.0
 10
6.8480562516
 20
12.8614748879
 30
0.0
 10
6.847863946
 20
12.8649376588
 30
0.0
 10
6.8476515526
 20
12.8683766037
 30
0.0
 10
6.8474532284
 20
12.8712227726
 30
0.0
 10
6.8472779704
 20
12.8734789103
 30
0.0
 10
6.847137581
 20
12.8751499589
 30
0.0
 10
6.846986253
 20
12.876800872
 30
0.0
 10
6.8468220951
 20
12.8784251292
 30
0.0
 10
6.8466425355
 20
12.8800129876
 30
0.0
 10
6.8464443085
 20
12.8815491948
 30
0.0
 10
6.8462237797
 20
12.8830091025
 30
0.0
 10
6.8459760047
 20
12.8843502056
 30
0.0
 10
6.845734948
 20
12.8853628104
 30
0.0
 10
6.8455088332
 20
12.8860502879
 30
0.0
 10
6.8453398235
 20
12.886445652
 30
0.0
 10
6.845180563
 20
12.8867059401
 30
0.0
 10
6.8450420744
 20
12.8868450502
 30
0.0
 10
6.8449429217
 20
12.88690803
 30
0.0
 10
6.8448395096
 20
12.8869337007
 30
0.0
 10
6.8446945853
 20
12.8869148416
 30
0.0
 10
6.8445157831
 20
12.8867841373
 30
0.0
 10
6.8443363869
 20
12.8865328051
 30
0.0
 10
6.8441608519
 20
12.886190025
 30
0.0
 10
6.8439928028
 20
12.8857686405
 30
0.0
 10
6.8438314886
 20
12.8852829781
 30
0.0
 10
6.8436767755
 20
12.8847454099
 30
0.0
 10
6.8434746229
 20
12.883953479
 30
0.0
 10
6.8432413301
 20
12.8828895567
 30
0.0
 10
6.8429857787
 20
12.881544593
 30
0.0
 10
6.8427458821
 20
12.8801295471
 30
0.0
 10
6.8425191765
 20
12.8786624482
 30
0.0
 10
6.842229505
 20
12.8766343215
 30
0.0
 10
6.8418938028
 20
12.8740316201
 30
0.0
 10
6.8413950048
 20
12.8697475014
 30
0.0
 10
6.8409471884
 20
12.8653836437
 30
0.0
 10
6.8405303491
 20
12.8609605128
 30
0.0
 10
6.8401273602
 20
12.8564547449
 30
0.0
 10
6.8396526358
 20
12.8507666434
 30
0.0
 10
6.8391190026
 20
12.8438866678
 30
0.0
 10
6.8384422164
 20
12.8346068649
 30
0.0
 10
6.837654238
 20
12.822908626
 30
0.0
 10
6.8367758563
 20
12.8087806645
 30
0.0
 10
6.8359475972
 20
12.7945599185
 30
0.0
 10
6.8351595239
 20
12.7802727055
 30
0.0
 10
6.8344047879
 20
12.7659381887
 30
0.0
 10
6.833435817
 20
12.7467726181
 30
0.0
 10
6.8322870371
 20
12.7227912268
 30
0.0
 10
6.8309859567
 20
12.6940273703
 30
0.0
 10
6.8297488157
 20
12.6653314917
 30
0.0
 10
6.8285667479
 20
12.6367643799
 30
0.0
 10
6.8274335102
 20
12.6083815187
 30
0.0
 10
6.8263445208
 20
12.5802344799
 30
0.0
 10
6.8252963896
 20
12.5523725935
 30
0.0
 10
6.8246186999
 20
12.5338981152
 30
0.0
 10
6.8242857143
 20
12.524716445
 30
0.0
  0
SPLINE
  5
37D
100
AcDbEntity
  8
0
100
AcDbSpline
 62
7
  6
BYLAYER
 70
0
 71
3
 72
35
 73
31
 74
0
 42
0.0000001
 43
0.0000001
 44
0.0000000001
 40
0.0
 40
0.0
 40
0.0
 40
0.0
 40
0.1167307832
 40
0.2375280457
 40
0.3615404412
 40
0.4244809146
 40
0.487897653
 40
0.5516805149
 40
0.6157195445
 40
0.6799056926
 40
0.7120209703
 40
0.7441332543
 40
0.7762298767
 40
0.8082987369
 40
0.8403286238
 40
0.8563265747
 40
0.8723116406
 40
0.8882832469
 40
0.904241287
 40
0.9201863957
 40
0.9361205632
 40
0.9440863093
 40
0.9520520607
 40
0.9600195498
 40
0.9679913044
 40
0.9759706659
 40
0.9839623523
 40
0.991967145
 40
0.9959835243
 40
1.0
 40
1.0
 40
1.0
 40
1.0
 10
6.8242857143
 20
12.524716445
 30
0.0
 10
6.8223215239
 20
12.5446333648
 30
0.0
 10
6.8181581229
 20
12.5851449194
 30
0.0
 10
6.8111985915
 20
12.646740406
 30
0.0
 10
6.8046091982
 20
12.6990933667
 30
0.0
 10
6.7987176464
 20
12.7416136513
 30
0.0
 10
6.7939256076
 20
12.7738597371
 30
0.0
 10
6.7887255742
 20
12.8062336463
 30
0.0
 10
6.7830361812
 20
12.8386594448
 30
0.0
 10
6.7777949913
 20
12.8656479269
 30
0.0
 10
6.7732118009
 20
12.887182764
 30
0.0
 10
6.7695468084
 20
12.9032864369
 30
0.0
 10
6.765613327
 20
12.9193187854
 30
0.0
 10
6.7613529054
 20
12.9352531074
 30
0.0
 10
6.7574588977
 20
12.9484245691
 30
0.0
 10
6.7540715497
 20
12.9588644351
 30
0.0
 10
6.7513711336
 20
12.9666309219
 30
0.0
 10
6.7484783931
 20
12.9743208518
 30
0.0
 10
6.7453507386
 20
12.9819116143
 30
0.0
 10
6.7419280905
 20
12.9893677059
 30
0.0
 10
6.738755696
 20
12.9954236308
 30
0.0
 10
6.7359549218
 20
13.0001161656
 30
0.0
 10
6.7336956416
 20
13.0035366149
 30
0.0
 10
6.7312433002
 20
13.0068240233
 30
0.0
 10
6.7285520673
 20
13.009924562
 30
0.0
 10
6.7255611914
 20
13.0127497802
 30
0.0
 10
6.7222024623
 20
13.0151479731
 30
0.0
 10
6.7190429362
 20
13.0165739276
 30
0.0
 10
6.7163537993
 20
13.0171856369
 30
0.0
 10
6.7149743406
 20
13.0172917434
 30
0.0
 10
6.7142857143
 20
13.0172917434
 30
0.0
  0
SPLINE
  5
37E
100
AcDbEntity
  8
0
100
AcDbSpline
 62
7
  6
BYLAYER
 70
0
 71
3
 72
17
 73
13
 74
0
 42
0.0000001
 43
0.0000001
 44
0.0000000001
 40
0.0
 40
0.0
 40
0.0
 40
0.0
 40
0.0205208991
 40
0.0447579211
 40
0.0746576925
 40
0.1111676338
 40
0.204922859
 40
0.3257627489
 40
0.4706912363
 40
0.6353476947
 40
0.8142103866
 40
1.0
 40
1.0
 40
1.0
 40
1.0
 10
4.8214285714
 20
12.0635356783
 30
0.0
 10
4.8214285714
 20
12.063795539
 30
0.0
 10
4.8215697328
 20
12.0643648439
 30
0.0
 10
4.8221204393
 20
12.0651486848
 30
0.0
 10
4.8229828217
 20
12.0659161477
 30
0.0
 10
4.8246958849
 20
12.0670123112
 30
0.0
 10
4.8276385138
 20
12.0682615682
 30
0.0
 10
4.8320100657
 20
12.0695472309
 30
0.0
 10
4.8373550043
 20
12.0706447436
 30
0.0
 10
4.8434863462
 20
12.0714865489
 30
0.0
 10
4.850171605
 20
12.0720143641
 30
0.0
 10
4.8547901621
 20
12.0721353023
 30
0.0
 10
4.8571428571
 20
12.0721353023
 30
0.0
  0
SPLINE
  5
37F
100
AcDbEntity
  8
0
100
AcDbSpline
 62
7
  6
BYLAYER
 70
0
 71
3
 72
17
 73
13
 74
0
 42
0.0000001
 43
0.0000001
 44
0.0000000001
 40
0.0
 40
0.0
 40
0.0
 40
0.0
 40
0.1857896134
 40
0.3646523053
 40
0.5293087637
 40
0.6742372511
 40
0.795077141
 40
0.8888323662
 40
0.9253423075
 40
0.9552420789
 40
0.9794791009
 40
1.0
 40
1.0
 40
1.0
 40
1.0
 10
5.1428571429
 20
12.0721353023
 30
0.0
 10
5.1452098379
 20
12.0721353023
 30
0.0
 10
5.149828395
 20
12.0720143641
 30
0.0
 10
5.1565136538
 20
12.0714865489
 30
0.0
 10
5.1626449957
 20
12.0706447436
 30
0.0
 10
5.1679899343
 20
12.0695472309
 30
0.0
 10
5.1723614862
 20
12.0682615682
 30
0.0
 10
5.1753041151
 20
12.0670123112
 30
0.0
 10
5.1770171783
 20
12.0659161477
 30
0.0
 10
5.1778795607
 20
12.0651486848
 30
0.0
 10
5.1784302672
 20
12.0643648439
 30
0.0
 10
5.1785714286
 20
12.063795539
 30
0.0
 10
5.1785714286
 20
12.0635356783
 30
0.0
  0
SPLINE
  5
380
100
AcDbEntity
  8
0
100
AcDbSpline
 62
7
  6
BYLAYER
 70
0
 71
3
 72
82
 73
78
 74
0
 42
0.0000001
 43
0.0000001
 44
0.0000000001
 40
0.0
 40
0.0
 40
0.0
 40
0.0
 40
0.03127265
 40
0.0625464029
 40
0.0938196786
 40
0.1250935158
 40
0.1876054826
 40
0.2501188633
 40
0.2813931361
 40
0.3126674132
 40
0.3439418612
 40
0.3752164285
 40
0.4064909205
 40
0.4377651795
 40
0.4690388269
 40
0.5003110574
 40
0.5315820942
 40
0.5628523861
 40
0.5941222761
 40
0.6097585206
 40
0.6253945998
 40
0.6410305088
 40
0.6566662204
 40
0.6723016814
 40
0.687936801
 40
0.7035713953
 40
0.7113884348
 40
0.7192051673
 40
0.7270214835
 40
0.7348372143
 40
0.7426520809
 40
0.7504655842
 40
0.7543716013
 40
0.7582768777
 40
0.7621811078
 40
0.7660837664
 40
0.7699838762
 40
0.7719326599
 40
0.7738799959
 40
0.77582519
 40
0.7777669853
 40
0.7797028549
 40
0.7806686345
 40
0.7816315375
 40
0.7825912201
 40
0.783548067
 40
0.7845028931
 40
0.7854586601
 40
0.7864166229
 40
0.787376675
 40
0.7893014432
 40
0.7912333097
 40
0.7931696381
 40
0.7951089505
 40
0.7970503678
 40
0.8009370009
 40
0.804827757
 40
0.8087212134
 40
0.8126165786
 40
0.8165133778
 40
0.8204112986
 40
0.8243101222
 40
0.8282096887
 40
0.836010337
 40
0.8438129012
 40
0.8516169342
 40
0.8594221329
 40
0.867228283
 40
0.8750352278
 40
0.8906502502
 40
0.9062674555
 40
0.921886417
 40
0.9375068471
 40
0.9531285485
 40
0.9687513735
 40
0.9843752027
 40
1.0
 40
1.0
 40
1.0
 40
1.0
 10
15.9716852583
 20
4.2434574286
 30
0.0
 10
15.9711548424
 20
4.2574928762
 30
0.0
 10
15.9710685612
 20
4.2856108551
 30
0.0
 10
15.9738528292
 20
4.327687444
 30
0.0
 10
15.9795264118
 20
4.3694767662
 30
0.0
 10
15.9908822144
 20
4.4245219066
 30
0.0
 10
16.0120795988
 20
4.4916854755
 30
0.0
 10
16.0421219657
 20
4.5553780492
 30
0.0
 10
16.0710435743
 20
4.6035686002
 30
0.0
 10
16.0950825375
 20
4.6382165117
 30
0.0
 10
16.1213373374
 20
4.6712142846
 30
0.0
 10
16.1496775764
 20
4.7024392432
 30
0.0
 10
16.1799642842
 20
4.7317788557
 30
0.0
 10
16.2120522042
 20
4.7591352524
 30
0.0
 10
16.2457903487
 20
4.7844254401
 30
0.0
 10
16.2810233242
 20
4.8075834291
 30
0.0
 10
16.3175930034
 20
4.8285622569
 30
0.0
 10
16.3553384971
 20
4.8473367869
 30
0.0
 10
16.3876414119
 20
4.8611478239
 30
0.0
 10
16.4139065618
 20
4.8711137144
 30
0.0
 10
16.4337997464
 20
4.8780581393
 30
0.0
 10
16.4538652438
 20
4.8844857279
 30
0.0
 10
16.4740828356
 20
4.8904159777
 30
0.0
 10
16.494431969
 20
4.8958753319
 30
0.0
 10
16.5148914758
 20
4.9009017047
 30
0.0
 10
16.5320147289
 20
4.9047749011
 30
0.0
 10
16.545744508
 20
4.9077271593
 30
0.0
 10
16.5560534534
 20
4.9098840637
 30
0.0
 10
16.5663694743
 20
4.9120037456
 30
0.0
 10
16.5766866474
 20
4.914113643
 30
0.0
 10
16.586996455
 20
4.9162530475
 30
0.0
 10
16.5955717226
 20
4.9181087775
 30
0.0
 10
16.6024098869
 20
4.919685968
 30
0.0
 10
16.6075216107
 20
4.9209344146
 30
0.0
 10
16.6126088462
 20
4.9222742238
 30
0.0
 10
16.617657887
 20
4.9237439985
 30
0.0
 10
16.6218157075
 20
4.9251266072
 30
0.0
 10
16.6250857188
 20
4.9263805534
 30
0.0
 10
16.6274968555
 20
4.927416725
 30
0.0
 10
16.6298473055
 20
4.9285792827
 30
0.0
 10
16.6320995563
 20
4.9299139272
 30
0.0
 10
16.6338410574
 20
4.931232661
 30
0.0
 10
16.6350679799
 20
4.9324649076
 30
0.0
 10
16.6358651386
 20
4.9334937541
 30
0.0
 10
16.6364861124
 20
4.9346363847
 30
0.0
 10
16.6368605169
 20
4.9358818817
 30
0.0
 10
16.6369344489
 20
4.9371796956
 30
0.0
 10
16.6367147258
 20
4.9384590789
 30
0.0
 10
16.6362532955
 20
4.9396712339
 30
0.0
 10
16.6354035748
 20
4.9411788643
 30
0.0
 10
16.6340280321
 20
4.9428660882
 30
0.0
 10
16.6321205397
 20
4.9446414027
 30
0.0
 10
16.6300535304
 20
4.9462368872
 30
0.0
 10
16.6278830091
 20
4.947693458
 30
0.0
 10
16.6248907104
 20
4.949488984
 30
0.0
 10
16.6210172464
 20
4.9515092722
 30
0.0
 10
16.6162422119
 20
4.9536754616
 30
0.0
 10
16.6113773888
 20
4.9556410468
 30
0.0
 10
16.6064471026
 20
4.9574426756
 30
0.0
 10
16.6014662414
 20
4.959105085
 30
0.0
 10
16.5964449842
 20
4.9606459694
 30
0.0
 10
16.5913905265
 20
4.9620784686
 30
0.0
 10
16.5846137649
 20
4.9638573234
 30
0.0
 10
16.5760835458
 20
4.9658551479
 30
0.0
 10
16.5657774385
 20
4.9679370316
 30
0.0
 10
16.5554159975
 20
4.9697342882
 30
0.0
 10
16.5450110656
 20
4.9712693587
 30
0.0
 10
16.5345716585
 20
4.9725592205
 30
0.0
 10
16.5206163173
 20
4.9739693324
 30
0.0
 10
16.5031190093
 20
4.9751778539
 30
0.0
 10
16.4820811002
 20
4.9758022662
 30
0.0
 10
16.4610323303
 20
4.9756429037
 30
0.0
 10
16.4400010612
 20
4.9747313588
 30
0.0
 10
16.4190124491
 20
4.9730923491
 30
0.0
 10
16.3980896791
 20
4.9707461375
 30
0.0
 10
16.3772548017
 20
4.9677100283
 30
0.0
 10
16.363436992
 20
4.9652360175
 30
0.0
 10
16.3565499435
 20
4.9638889265
 30
0.0
  0
SPLINE
  5
381
100
AcDbEntity
  8
0
100
AcDbSpline
 62
7
  6
BYLAYER
 70
0
 71
3
 72
43
 73
39
 74
0
 42
0.0000001
 43
0.0000001
 44
0.0000000001
 40
0.0
 40
0.0
 40
0.0
 40
0.0
 40
0.0312445523
 40
0.0468726484
 40
0.0625012667
 40
0.0937478088
 40
0.1249950739
 40
0.1406244215
 40
0.1562538489
 40
0.1875020466
 40
0.2187504512
 40
0.2499990003
 40
0.2812475345
 40
0.3124960039
 40
0.3437444237
 40
0.3749927445
 40
0.406240978
 40
0.437489193
 40
0.4687374146
 40
0.4999856817
 40
0.5312340728
 40
0.5624826286
 40
0.5937314028
 40
0.624980445
 40
0.6562297898
 40
0.6874794025
 40
0.7187292908
 40
0.7499794651
 40
0.7812298425
 40
0.8124803511
 40
0.8437309881
 40
0.8593606428
 40
0.8749902807
 40
0.9062408303
 40
0.9374913481
 40
0.9531206545
 40
0.9687498314
 40
1.0
 40
1.0
 40
1.0
 40
1.0
 10
17.3137453785
 20
4.2434574286
 30
0.0
 10
17.3152506206
 20
4.2214550767
 30
0.0
 10
17.3157036464
 20
4.1882872813
 30
0.0
 10
17.3127174523
 20
4.144257132
 30
0.0
 10
17.3073590822
 20
4.1004463685
 30
0.0
 10
17.2962498069
 20
4.0463201947
 30
0.0
 10
17.279428715
 20
3.9936895016
 30
0.0
 10
17.2626939328
 20
3.9528475224
 30
0.0
 10
17.2438266516
 20
3.9129454429
 30
0.0
 10
17.2163403843
 20
3.8650120061
 30
0.0
 10
17.1775459936
 20
3.8112637615
 30
0.0
 10
17.1333922823
 20
3.7618207984
 30
0.0
 10
17.084389143
 20
3.7171832313
 30
0.0
 10
17.0310846605
 20
3.677784531
 30
0.0
 10
16.9740602307
 20
3.6439968478
 30
0.0
 10
16.9139230679
 20
3.616127574
 30
0.0
 10
16.8512996982
 20
3.5944186299
 30
0.0
 10
16.7868288521
 20
3.5790470355
 30
0.0
 10
16.7211553312
 20
3.5701253858
 30
0.0
 10
16.6549239924
 20
3.567702408
 30
0.0
 10
16.5887739029
 20
3.5717654076
 30
0.0
 10
16.5233331927
 20
3.5822421899
 30
0.0
 10
16.4592140468
 20
3.5990026997
 30
0.0
 10
16.3970080638
 20
3.6218620434
 30
0.0
 10
16.3372821419
 20
3.6505834362
 30
0.0
 10
16.2805744148
 20
3.6848808949
 30
0.0
 10
16.2273903747
 20
3.7244224383
 30
0.0
 10
16.1781998526
 20
3.7688334057
 30
0.0
 10
16.1334331841
 20
3.8177012909
 30
0.0
 10
16.0934805828
 20
3.8705739254
 30
0.0
 10
16.0644782478
 20
3.9175842768
 30
0.0
 10
16.0440106501
 20
3.9566877619
 30
0.0
 10
16.0254015499
 20
3.9967093671
 30
0.0
 10
16.0056947477
 20
4.0483083683
 30
0.0
 10
15.9909042054
 20
4.1015243146
 30
0.0
 10
15.9820932518
 20
4.1447721784
 30
0.0
 10
15.9753103218
 20
4.1883805875
 30
0.0
 10
15.9725182516
 20
4.2214154179
 30
0.0
 10
15.9716852583
 20
4.2434574286
 30
0.0
  0
SPLINE
  5
382
100
AcDbEntity
  8
0
100
AcDbSpline
 62
7
  6
BYLAYER
 70
0
 71
3
 72
11
 73
7
 74
0
 42
0.0000001
 43
0.0000001
 44
0.0000000001
 40
0.0
 40
0.0
 40
0.0
 40
0.0
 40
0.2504634598
 40
0.5007317025
 40
0.7506214919
 40
1.0
 40
1.0
 40
1.0
 40
1.0
 10
17.3149447796
 20
4.2434574286
 30
0.0
 10
17.3146346244
 20
4.2790315146
 30
0.0
 10
17.3131267634
 20
4.3501470068
 30
0.0
 10
17.3084276443
 20
4.4566675637
 30
0.0
 10
17.3018568732
 20
4.5629312346
 30
0.0
 10
17.2967166466
 20
4.6336605456
 30
0.0
 10
17.2940820469
 20
4.6689837637
 30
0.0
  0
SPLINE
  5
383
100
AcDbEntity
  8
0
100
AcDbSpline
 62
7
  6
BYLAYER
 70
0
 71
3
 72
15
 73
11
 74
0
 42
0.0000001
 43
0.0000001
 44
0.0000000001
 40
0.0
 40
0.0
 40
0.0
 40
0.0
 40
0.1644523556
 40
0.318106604
 40
0.4602453599
 40
0.5904813056
 40
0.7087742299
 40
0.8155837282
 40
0.9120147517
 40
1.0
 40
1.0
 40
1.0
 40
1.0
 10
16.7043824007
 20
13.0111435963
 30
0.0
 10
16.7092617397
 20
13.0269331431
 30
0.0
 10
16.7195137638
 20
13.0572341995
 30
0.0
 10
16.7370340406
 20
13.1000741103
 30
0.0
 10
16.7560536952
 20
13.138478046
 30
0.0
 10
16.7764091589
 20
13.1721129066
 30
0.0
 10
16.797937891
 20
13.2006935596
 30
0.0
 10
16.8204908287
 20
13.2239771671
 30
0.0
 10
16.8439099633
 20
13.2417412184
 30
0.0
 10
16.8606458094
 20
13.2500569145
 30
0.0
 10
16.8689615111
 20
13.2530615749
 30
0.0
  0
SPLINE
  5
384
100
AcDbEntity
  8
0
100
AcDbSpline
 62
7
  6
BYLAYER
 70
0
 71
3
 72
28
 73
24
 74
0
 42
0.0000001
 43
0.0000001
 44
0.0000000001
 40
0.0
 40
0.0
 40
0.0
 40
0.0
 40
0.0650653652
 40
0.1343816802
 40
0.2070271968
 40
0.281981214
 40
0.3581650007
 40
0.4344676533
 40
0.5097753821
 40
0.5829996981
 40
0.6531065938
 40
0.7191478487
 40
0.780296805
 40
0.808829571
 40
0.8359090452
 40
0.861488429
 40
0.88554147
 40
0.9080648975
 40
0.9290840927
 40
0.948659553
 40
0.9668930626
 40
0.9839371407
 40
1.0
 40
1.0
 40
1.0
 40
1.0
 10
16.7043824007
 20
13.0111435963
 30
0.0
 10
16.6971611196
 20
12.987775522
 30
0.0
 10
16.6841327815
 20
12.9389178038
 30
0.0
 10
16.669016556
 20
12.8625314974
 30
0.0
 10
16.6578883002
 20
12.7817102645
 30
0.0
 10
16.6509445457
 20
12.6978371251
 30
0.0
 10
16.6483061119
 20
12.6123444044
 30
0.0
 10
16.6500195478
 20
12.5266954613
 30
0.0
 10
16.656054805
 20
12.4423559414
 30
0.0
 10
16.666306178
 20
12.3607684141
 30
0.0
 10
16.6805942595
 20
12.2833226748
 30
0.0
 10
16.6986705963
 20
12.2113397006
 30
0.0
 10
16.7170308142
 20
12.155682938
 30
0.0
 10
16.7335216675
 20
12.1149924988
 30
0.0
 10
16.7463381931
 20
12.0872789553
 30
0.0
 10
16.7598348752
 20
12.0617786395
 30
0.0
 10
16.7739551849
 20
12.0385983823
 30
0.0
 10
16.7886419023
 20
12.0178355324
 30
0.0
 10
16.8038373742
 20
11.9995772253
 30
0.0
 10
16.8194824796
 20
11.9839001931
 30
0.0
 10
16.835523499
 20
11.9708746283
 30
0.0
 10
16.8518963043
 20
11.9605644944
 30
0.0
 10
16.8632830036
 20
11.9554143227
 30
0.0
 10
16.8689617962
 20
11.9533624659
 30
0.0
  0
SPLINE
  5
385
100
AcDbEntity
  8
0
100
AcDbSpline
 62
7
  6
BYLAYER
 70
0
 71
3
 72
9
 73
5
 74
0
 42
0.0000001
 43
0.0000001
 44
0.0000000001
 40
0.0
 40
0.0
 40
0.0
 40
0.0
 40
0.4990212718
 40
1.0
 40
1.0
 40
1.0
 40
1.0
 10
16.97152384
 20
11.9231345076
 30
0.0
 10
17.0110349691
 20
11.9072258275
 30
0.0
 10
17.090485112
 20
11.8760222557
 30
0.0
 10
17.1703171041
 20
11.845814924
 30
0.0
 10
17.210381805
 20
11.8308718345
 30
0.0
  0
SPLINE
  5
386
100
AcDbEntity
  8
0
100
AcDbSpline
 62
7
  6
BYLAYER
 70
0
 71
3
 72
9
 73
5
 74
0
 42
0.0000001
 43
0.0000001
 44
0.0000000001
 40
0.0
 40
0.0
 40
0.0
 40
0.0
 40
0.513574177
 40
1.0
 40
1.0
 40
1.0
 40
1.0
 10
17.0708446972
 20
12.3135788625
 30
0.0
 10
17.075486526
 20
12.2818728507
 30
0.0
 10
17.0861767981
 20
12.2203643986
 30
0.0
 10
17.1005262391
 20
12.1595922721
 30
0.0
 10
17.108529854
 20
12.1303165017
 30
0.0
  0
SPLINE
  5
387
100
AcDbEntity
  8
0
100
AcDbSpline
 62
7
  6
BYLAYER
 70
0
 71
3
 72
9
 73
5
 74
0
 42
0.0000001
 43
0.0000001
 44
0.0000000001
 40
0.0
 40
0.0
 40
0.0
 40
0.0
 40
0.4987105342
 40
1.0
 40
1.0
 40
1.0
 40
1.0
 10
16.7131915092
 20
12.4495604494
 30
0.0
 10
16.7721977726
 20
12.4258022884
 30
0.0
 10
16.8911162857
 20
12.3796533691
 30
0.0
 10
17.0107524507
 20
12.3354207205
 30
0.0
 10
17.0708446972
 20
12.3135788625
 30
0.0
  0
SPLINE
  5
388
100
AcDbEntity
  8
0
100
AcDbSpline
 62
7
  6
BYLAYER
 70
0
 71
3
 72
9
 73
5
 74
0
 42
0.0000001
 43
0.0000001
 44
0.0000000001
 40
0.0
 40
0.0
 40
0.0
 40
0.0
 40
0.5066897176
 40
1.0
 40
1.0
 40
1.0
 40
1.0
 10
16.9342824811
 20
11.9297660971
 30
0.0
 10
16.9403146402
 20
11.9275870414
 30
0.0
 10
16.9525925889
 20
11.9242368575
 30
0.0
 10
16.9652795568
 20
11.9231136027
 30
0.0
 10
16.97152384
 20
11.9231345076
 30
0.0
  0
SPLINE
  5
389
100
AcDbEntity
  8
0
100
AcDbSpline
 62
7
  6
BYLAYER
 70
0
 71
3
 72
20
 73
16
 74
0
 42
0.0000001
 43
0.0000001
 44
0.0000000001
 40
0.0
 40
0.0
 40
0.0
 40
0.0
 40
0.1674493747
 40
0.3267941539
 40
0.4752341941
 40
0.5446160539
 40
0.6104243267
 40
0.6724632912
 40
0.7305877124
 40
0.7847239388
 40
0.83487785
 40
0.8811609985
 40
0.9238123938
 40
0.963228373
 40
1.0
 40
1.0
 40
1.0
 40
1.0
 10
16.7131915092
 20
12.4495604494
 30
0.0
 10
16.7161372777
 20
12.4169447546
 30
0.0
 10
16.7237906227
 20
12.3534417448
 30
0.0
 10
16.7409462572
 20
12.2620285428
 30
0.0
 10
16.7598692852
 20
12.1906404429
 30
0.0
 10
16.7776325795
 20
12.1380725737
 30
0.0
 10
16.7917435477
 20
12.1021554843
 30
0.0
 10
16.8068598703
 20
12.0690528683
 30
0.0
 10
16.8229026519
 20
12.038948304
 30
0.0
 10
16.8397820878
 20
12.0120054005
 30
0.0
 10
16.8574129806
 20
11.9883715411
 30
0.0
 10
16.8757063106
 20
11.9681755155
 30
0.0
 10
16.8945798679
 20
11.9515302947
 30
0.0
 10
16.9139425015
 20
11.9385430724
 30
0.0
 10
16.9275187563
 20
11.9322094235
 30
0.0
 10
16.9342824811
 20
11.9297660971
 30
0.0
  0
SPLINE
  5
38A
100
AcDbEntity
  8
0
100
AcDbSpline
 62
7
  6
BYLAYER
 70
0
 71
3
 72
15
 73
11
 74
0
 42
0.0000001
 43
0.0000001
 44
0.0000000001
 40
0.0
 40
0.0
 40
0.0
 40
0.0
 40
0.1530508115
 40
0.2986150253
 40
0.436273129
 40
0.5657093274
 40
0.686734876
 40
0.7993151286
 40
0.9036060422
 40
1.0
 40
1.0
 40
1.0
 40
1.0
 10
17.1422287513
 20
13.2048417025
 30
0.0
 10
17.1477639916
 20
13.2227537468
 30
0.0
 10
17.1592806673
 20
13.2574864342
 30
0.0
 10
17.1784219682
 20
13.3074031543
 30
0.0
 10
17.1989177654
 20
13.3536367361
 30
0.0
 10
17.2206625636
 20
13.395948139
 30
0.0
 10
17.2435459168
 20
13.4341207738
 30
0.0
 10
17.2674570996
 20
13.4679621683
 30
0.0
 10
17.2922768598
 20
13.4972954897
 30
0.0
 10
17.310027243
 20
13.5143898642
 30
0.0
 10
17.3190238324
 20
13.5220372635
 30
0.0
  0
SPLINE
  5
38B
100
AcDbEntity
  8
0
100
AcDbSpline
 62
7
  6
BYLAYER
 70
0
 71
3
 72
39
 73
35
 74
0
 42
0.0000001
 43
0.0000001
 44
0.0000000001
 40
0.0
 40
0.0
 40
0.0
 40
0.0
 40
0.0328226584
 40
0.0669026816
 40
0.102120329
 40
0.1383468705
 40
0.1754452405
 40
0.2132718496
 40
0.2516776712
 40
0.2905095119
 40
0.368817343
 40
0.4469366173
 40
0.4855340625
 40
0.5236140489
 40
0.5610257219
 40
0.5976231197
 40
0.6332664125
 40
0.6678232246
 40
0.7011700707
 40
0.7331939547
 40
0.7637941998
 40
0.7928845997
 40
0.8203960236
 40
0.8462796497
 40
0.8705110611
 40
0.8930954908
 40
0.9140745113
 40
0.9335343339
 40
0.9516154086
 40
0.9685218846
 40
0.9766237669
 40
0.9845405734
 40
0.9923167665
 40
1.0
 40
1.0
 40
1.0
 40
1.0
 10
17.1422287513
 20
13.2048417025
 30
0.0
 10
17.1367184111
 20
13.187010235
 30
0.0
 10
17.12622659
 20
13.1504321289
 30
0.0
 10
17.11228115
 20
13.0940526026
 30
0.0
 10
17.0998808163
 20
13.0353336858
 30
0.0
 10
17.089085282
 20
12.9745559189
 30
0.0
 10
17.0799462161
 20
12.9120080633
 30
0.0
 10
17.0725075364
 20
12.8479882744
 30
0.0
 10
17.0668046398
 20
12.7828010408
 30
0.0
 10
17.0615387239
 20
12.694502966
 30
0.0
 10
17.0594534757
 20
12.5834382614
 30
0.0
 10
17.0633028076
 20
12.4725533654
 30
0.0
 10
17.0699810879
 20
12.3847776235
 30
0.0
 10
17.0767190616
 20
12.3202465065
 30
0.0
 10
17.0851725933
 20
12.2570647932
 30
0.0
 10
17.0953014457
 20
12.1955329555
 30
0.0
 10
17.107056968
 20
12.1359440458
 30
0.0
 10
17.1203828547
 20
12.0785814602
 30
0.0
 10
17.1352153236
 20
12.0237177214
 30
0.0
 10
17.1514835211
 20
11.9716130416
 30
0.0
 10
17.1691099615
 20
11.9225139905
 30
0.0
 10
17.1880110813
 20
11.8766521967
 30
0.0
 10
17.208097924
 20
11.8342431258
 30
0.0
 10
17.2292770542
 20
11.7954849689
 30
0.0
 10
17.2514516442
 20
11.760557786
 30
0.0
 10
17.2745232485
 20
11.7296230074
 30
0.0
 10
17.2983926998
 20
11.7028241308
 30
0.0
 10
17.3229648017
 20
11.6802878985
 30
0.0
 10
17.3481383992
 20
11.6621312738
 30
0.0
 10
17.3698532545
 20
11.6505773584
 30
0.0
 10
17.3873112333
 20
11.6437675907
 30
0.0
 10
17.4002877565
 20
11.639880594
 30
0.0
 10
17.4133121646
 20
11.6371504887
 30
0.0
 10
17.4220531095
 20
11.6360997345
 30
0.0
 10
17.4264095609
 20
11.635771423
 30
0.0
  0
SPLINE
  5
38C
100
AcDbEntity
  8
02___PRT_ALL_AXES
100
AcDbSpline
 62
7
  6
BYLAYER
 70
0
 71
3
 72
14
 73
10
 74
0
 42
0.0000001
 43
0.0000001
 44
0.0000000001
 40
0.0
 40
0.0
 40
0.0
 40
0.0
 40
0.3152667198
 40
0.45425357
 40
0.5812298155
 40
0.6972333718
 40
0.8039363078
 40
0.9037966714
 40
1.0
 40
1.0
 40
1.0
 40
1.0
 10
18.1570105725
 20
12.9515282676
 30
0.0
 10
18.1578561988
 20
12.9498050624
 30
0.0
 10
18.1592306927
 20
12.9473863704
 30
0.0
 10
18.1614035882
 20
12.9445864835
 30
0.0
 10
18.1630284389
 20
12.9429145355
 30
0.0
 10
18.1647075246
 20
12.9415934439
 30
0.0
 10
18.166433384
 20
12.9406353791
 30
0.0
 10
18.1681944184
 20
12.940052365
 30
0.0
 10
18.1693918303
 20
12.9399209172
 30
0.0
 10
18.169977567
 20
12.9399208244
 30
0.0
  0
SPLINE
  5
38D
100
AcDbEntity
  8
02___PRT_ALL_AXES
100
AcDbSpline
 62
7
  6
BYLAYER
 70
0
 71
3
 72
24
 73
20
 74
0
 42
0.0000001
 43
0.0000001
 44
0.0000000001
 40
0.0
 40
0.0
 40
0.0
 40
0.0
 40
0.0673958727
 40
0.1394151215
 40
0.2149562047
 40
0.2928090253
 40
0.3716932701
 40
0.4502994007
 40
0.5273256526
 40
0.6015164369
 40
0.6717022604
 40
0.7368442277
 40
0.7960876979
 40
0.8488343889
 40
0.8948506693
 40
0.9344421834
 40
0.9687216521
 40
0.9845676783
 40
1.0
 40
1.0
 40
1.0
 40
1.0
 10
18.0191487308
 20
12.5915889242
 30
0.0
 10
18.0185186237
 20
12.5895498969
 30
0.0
 10
18.0173911785
 20
12.5852764397
 30
0.0
 10
18.0161111124
 20
12.5785866128
 30
0.0
 10
18.0152034281
 20
12.5715022948
 30
0.0
 10
18.0146863015
 20
12.5641613645
 30
0.0
 10
18.0145700364
 20
12.5567061915
 30
0.0
 10
18.0148569508
 20
12.5492818017
 30
0.0
 10
18.0155413223
 20
12.5420324991
 30
0.0
 10
18.0166094963
 20
12.535098952
 30
0.0
 10
18.018040247
 20
12.528615156
 30
0.0
 10
18.0198052785
 20
12.5227054206
 30
0.0
 10
18.0218705533
 20
12.5174813541
 30
0.0
 10
18.0241973648
 20
12.5130387226
 30
0.0
 10
18.0267493368
 20
12.5094554033
 30
0.0
 10
18.029491571
 20
12.5067923153
 30
0.0
 10
18.0319971219
 20
12.5053594899
 30
0.0
 10
18.0340080608
 20
12.5048076819
 30
0.0
 10
18.0350007332
 20
12.5047170798
 30
0.0
 10
18.0354894151
 20
12.5047170035
 30
0.0
  0
SPLINE
  5
38E
100
AcDbEntity
  8
02___PRT_ALL_AXES
100
AcDbSpline
 62
7
  6
BYLAYER
 70
0
 71
3
 72
14
 73
10
 74
0
 42
0.0000001
 43
0.0000001
 44
0.0000000001
 40
0.0
 40
0.0
 40
0.0
 40
0.0
 40
0.3152667198
 40
0.45425357
 40
0.5812298155
 40
0.6972333718
 40
0.8039363078
 40
0.9037966714
 40
1.0
 40
1.0
 40
1.0
 40
1.0
 10
18.1919987704
 20
12.1709679584
 30
0.0
 10
18.1928443967
 20
12.1692447532
 30
0.0
 10
18.1942188906
 20
12.1668260612
 30
0.0
 10
18.1963917861
 20
12.1640261743
 30
0.0
 10
18.1980166368
 20
12.1623542263
 30
0.0
 10
18.1996957225
 20
12.1610331348
 30
0.0
 10
18.2014215819
 20
12.1600750699
 30
0.0
 10
18.2031826163
 20
12.1594920558
 30
0.0
 10
18.2043800282
 20
12.159360608
 30
0.0
 10
18.2049657649
 20
12.1593605152
 30
0.0
  0
SPLINE
  5
38F
100
AcDbEntity
  8
02___PRT_ALL_AXES
100
AcDbSpline
 62
7
  6
BYLAYER
 70
0
 71
3
 72
24
 73
20
 74
0
 42
0.0000001
 43
0.0000001
 44
0.0000000001
 40
0.0
 40
0.0
 40
0.0
 40
0.0
 40
0.0673958727
 40
0.1394151215
 40
0.2149562047
 40
0.2928090253
 40
0.3716932701
 40
0.4502994007
 40
0.5273256526
 40
0.6015164369
 40
0.6717022604
 40
0.7368442277
 40
0.7960876979
 40
0.8488343889
 40
0.8948506693
 40
0.9344421834
 40
0.9687216521
 40
0.9845676783
 40
1.0
 40
1.0
 40
1.0
 40
1.0
 10
18.3231132324
 20
12.6814362531
 30
0.0
 10
18.3224831254
 20
12.6793972258
 30
0.0
 10
18.3213556802
 20
12.6751237686
 30
0.0
 10
18.3200756141
 20
12.6684339417
 30
0.0
 10
18.3191679298
 20
12.6613496237
 30
0.0
 10
18.3186508031
 20
12.6540086934
 30
0.0
 10
18.3185345381
 20
12.6465535204
 30
0.0
 10
18.3188214525
 20
12.6391291306
 30
0.0
 10
18.319505824
 20
12.631879828
 30
0.0
 10
18.3205739979
 20
12.6249462808
 30
0.0
 10
18.3220047487
 20
12.6184624849
 30
0.0
 10
18.3237697801
 20
12.6125527495
 30
0.0
 10
18.3258350549
 20
12.607328683
 30
0.0
 10
18.3281618665
 20
12.6028860515
 30
0.0
 10
18.3307138384
 20
12.5993027322
 30
0.0
 10
18.3334560727
 20
12.5966396441
 30
0.0
 10
18.3359616236
 20
12.5952068188
 30
0.0
 10
18.3379725625
 20
12.5946550108
 30
0.0
 10
18.3389652348
 20
12.5945644087
 30
0.0
 10
18.3394539168
 20
12.5945643324
 30
0.0
  0
SPLINE
  5
390
100
AcDbEntity
  8
0
100
AcDbSpline
 62
7
  6
BYLAYER
 70
0
 71
3
 72
15
 73
11
 74
0
 42
0.0000001
 43
0.0000001
 44
0.0000000001
 40
0.0
 40
0.0
 40
0.0
 40
0.0
 40
0.1639842599
 40
0.315435485
 40
0.4543864559
 40
0.5813405284
 40
0.6973101785
 40
0.803985338
 40
0.9038199057
 40
1.0
 40
1.0
 40
1.0
 40
1.0
 10
18.1426902403
 20
12.4582965763
 30
0.0
 10
18.1442096449
 20
12.4552003554
 30
0.0
 10
18.147327896
 20
12.4493368573
 30
0.0
 10
18.1524699804
 20
12.4412682111
 30
0.0
 10
18.1578624924
 20
12.4343230511
 30
0.0
 10
18.1634731984
 20
12.4285487254
 30
0.0
 10
18.16927268
 20
12.4239869179
 30
0.0
 10
18.175232874
 20
12.4206783419
 30
0.0
 10
18.1813149601
 20
12.4186659328
 30
0.0
 10
18.1854502656
 20
12.4182120411
 30
0.0
 10
18.1874731377
 20
12.418212109
 30
0.0
  0
SPLINE
  5
391
100
AcDbEntity
  8
0
100
AcDbSpline
 62
7
  6
BYLAYER
 70
0
 71
3
 72
25
 73
21
 74
0
 42
0.0000001
 43
0.0000001
 44
0.0000000001
 40
0.0
 40
0.0
 40
0.0
 40
0.0
 40
0.1324356152
 40
0.2011070767
 40
0.2706281615
 40
0.3403989597
 40
0.4098077435
 40
0.4782599916
 40
0.545207541
 40
0.6101787365
 40
0.6728091717
 40
0.7328736493
 40
0.7903169296
 40
0.8452808873
 40
0.8719589636
 40
0.8981682274
 40
0.923985315
 40
0.9494977238
 40
0.974801768
 40
1.0
 40
1.0
 40
1.0
 40
1.0
 10
17.6631884972
 20
14.2185281597
 30
0.0
 10
17.6264739578
 20
14.2185281597
 30
0.0
 10
17.5705385734
 20
14.2119273701
 30
0.0
 10
17.4981376413
 20
14.191999794
 30
0.0
 10
17.4442385485
 20
14.1712441978
 30
0.0
 10
17.3924503461
 20
14.1452502903
 30
0.0
 10
17.3436902754
 20
14.114484661
 30
0.0
 10
17.2988456723
 20
14.0795028418
 30
0.0
 10
17.2587274122
 20
14.0409329784
 30
0.0
 10
17.2240635111
 20
13.9994654781
 30
0.0
 10
17.1954867062
 20
13.9558395841
 30
0.0
 10
17.1735253853
 20
13.9108267828
 30
0.0
 10
17.1585993887
 20
13.8652348238
 30
0.0
 10
17.1522174019
 20
13.8270289359
 30
0.0
 10
17.150988022
 20
13.7971245059
 30
0.0
 10
17.1519525482
 20
13.7752986796
 30
0.0
 10
17.1547931584
 20
13.7539628502
 30
0.0
 10
17.1594979768
 20
13.7332146215
 30
0.0
 10
17.1660451744
 20
13.7131537701
 30
0.0
 10
17.1716249781
 20
13.7002866541
 30
0.0
 10
17.1747022999
 20
13.6940154008
 30
0.0
  0
SPLINE
  5
392
100
AcDbEntity
  8
0
100
AcDbSpline
 62
7
  6
BYLAYER
 70
0
 71
3
 72
20
 73
16
 74
0
 42
0.0000001
 43
0.0000001
 44
0.0000000001
 40
0.0
 40
0.0
 40
0.0
 40
0.0
 40
0.1413211098
 40
0.2775815659
 40
0.3437700381
 40
0.4086398988
 40
0.4722133032
 40
0.534532914
 40
0.6556108778
 40
0.7146441496
 40
0.7728115831
 40
0.8302607812
 40
0.8871556525
 40
0.9436732973
 40
1.0
 40
1.0
 40
1.0
 40
1.0
 10
17.6631884972
 20
14.2185281597
 30
0.0
 10
17.6789272189
 20
14.2185281597
 30
0.0
 10
17.7098675955
 20
14.2169572219
 30
0.0
 10
17.7477444571
 20
14.2107922906
 30
0.0
 10
17.7765927181
 20
14.2033712452
 30
0.0
 10
17.7972225325
 20
14.1966716771
 30
0.0
 10
17.8169768029
 20
14.1888081536
 30
0.0
 10
17.8418012295
 20
14.1769312491
 30
0.0
 10
17.864907685
 20
14.1627447251
 30
0.0
 10
17.8858076137
 20
14.1463582024
 30
0.0
 10
17.9001497066
 20
14.133188087
 30
0.0
 10
17.9132291822
 20
14.1190870512
 30
0.0
 10
17.924997831
 20
14.1041061812
 30
0.0
 10
17.9354098024
 20
14.0883032544
 30
0.0
 10
17.9414258583
 20
14.0772494003
 30
0.0
 10
17.9441892745
 20
14.0716178531
 30
0.0
  0
SPLINE
  5
393
100
AcDbEntity
  8
02___PRT_ALL_AXES
100
AcDbSpline
 62
7
  6
BYLAYER
 70
0
 71
3
 72
18
 73
14
 74
0
 42
0.0000001
 43
0.0000001
 44
0.0000000001
 40
0.0
 40
0.0
 40
0.0
 40
0.0
 40
0.1325554487
 40
0.2707008724
 40
0.4098378702
 40
0.5451767032
 40
0.6726740656
 40
0.7327918435
 40
0.7902860523
 40
0.8452987116
 40
0.8981849504
 40
0.9495076359
 40
1.0
 40
1.0
 40
1.0
 40
1.0
 10
17.7093763946
 20
13.6529237635
 30
0.0
 10
17.7139658501
 20
13.6529237635
 30
0.0
 10
17.7233600995
 20
13.6540322959
 30
0.0
 10
17.7369084597
 20
13.6585271199
 30
0.0
 10
17.7494350446
 20
13.665585739
 30
0.0
 10
17.7600592756
 20
13.6747174533
 30
0.0
 10
17.7668538412
 20
13.6837404871
 30
0.0
 10
17.7705847848
 20
13.6913875767
 30
0.0
 10
17.7724504322
 20
13.6970878843
 30
0.0
 10
17.7733980762
 20
13.7027591541
 30
0.0
 10
17.7734041222
 20
13.7082991339
 30
0.0
 10
17.7724627839
 20
13.7136005561
 30
0.0
 10
17.7712065018
 20
13.7169204617
 30
0.0
 10
17.7704361977
 20
13.7184897956
 30
0.0
  0
SPLINE
  5
394
100
AcDbEntity
  8
02___PRT_ALL_AXES
100
AcDbSpline
 62
7
  6
BYLAYER
 70
0
 71
3
 72
11
 73
7
 74
0
 42
0.0000001
 43
0.0000001
 44
0.0000000001
 40
0.0
 40
0.0
 40
0.0
 40
0.0
 40
0.2644280716
 40
0.5170829352
 40
0.7609159252
 40
1.0
 40
1.0
 40
1.0
 40
1.0
 10
17.3297410359
 20
13.6948877051
 30
0.0
 10
17.3303703183
 20
13.6969240637
 30
0.0
 10
17.3312920583
 20
13.7010121862
 30
0.0
 10
17.3315691006
 20
13.707173383
 30
0.0
 10
17.3306929064
 20
13.7130752669
 30
0.0
 10
17.3293395801
 20
13.7167598652
 30
0.0
 10
17.3284904449
 20
13.7184897946
 30
0.0
  0
SPLINE
  5
395
100
AcDbEntity
  8
02___PRT_ALL_AXES
100
AcDbSpline
 62
7
  6
BYLAYER
 70
0
 71
3
 72
18
 73
14
 74
0
 42
0.0000001
 43
0.0000001
 44
0.0000000001
 40
0.0
 40
0.0
 40
0.0
 40
0.0
 40
0.1325554487
 40
0.2707008724
 40
0.4098378702
 40
0.5451767032
 40
0.6726740656
 40
0.7327918435
 40
0.7902860523
 40
0.8452987116
 40
0.8981849504
 40
0.9495076359
 40
1.0
 40
1.0
 40
1.0
 40
1.0
 10
17.3835795023
 20
14.0287816072
 30
0.0
 10
17.3881689578
 20
14.0287816072
 30
0.0
 10
17.3975632073
 20
14.0298901396
 30
0.0
 10
17.4111115675
 20
14.0343849636
 30
0.0
 10
17.4236381523
 20
14.0414435827
 30
0.0
 10
17.4342623833
 20
14.050575297
 30
0.0
 10
17.441056949
 20
14.0595983308
 30
0.0
 10
17.4447878925
 20
14.0672454204
 30
0.0
 10
17.44665354
 20
14.072945728
 30
0.0
 10
17.4476011839
 20
14.0786169978
 30
0.0
 10
17.4476072299
 20
14.0841569777
 30
0.0
 10
17.4466658917
 20
14.0894583998
 30
0.0
 10
17.4454096095
 20
14.0927783054
 30
0.0
 10
17.4446393054
 20
14.0943476394
 30
0.0
  0
SPLINE
  5
396
100
AcDbEntity
  8
02___PRT_ALL_AXES
100
AcDbSpline
 62
7
  6
BYLAYER
 70
0
 71
3
 72
11
 73
7
 74
0
 42
0.0000001
 43
0.0000001
 44
0.0000000001
 40
0.0
 40
0.0
 40
0.0
 40
0.0
 40
0.2644280716
 40
0.5170829352
 40
0.7609159252
 40
1.0
 40
1.0
 40
1.0
 40
1.0
 10
17.887835645
 20
14.0707455488
 30
0.0
 10
17.8884649274
 20
14.0727819074
 30
0.0
 10
17.8893866674
 20
14.0768700299
 30
0.0
 10
17.8896637098
 20
14.0830312267
 30
0.0
 10
17.8887875156
 20
14.0889331106
 30
0.0
 10
17.8874341893
 20
14.0926177089
 30
0.0
 10
17.886585054
 20
14.0943476383
 30
0.0
  0
SPLINE
  5
397
100
AcDbEntity
  8
0
100
AcDbSpline
 62
7
  6
BYLAYER
 70
0
 71
3
 72
14
 73
10
 74
0
 42
0.0000001
 43
0.0000001
 44
0.0000000001
 40
0.0
 40
0.0
 40
0.0
 40
0.0
 40
0.2772438701
 40
0.4083488628
 40
0.534316972
 40
0.6555619668
 40
0.7728347907
 40
0.8872056024
 40
1.0
 40
1.0
 40
1.0
 40
1.0
 10
17.5248648839
 20
13.7709127827
 30
0.0
 10
17.514660019
 20
13.7709127827
 30
0.0
 10
17.4995393617
 20
13.7724024293
 30
0.0
 10
17.4805900979
 20
13.777813591
 30
0.0
 10
17.4677582561
 20
13.7833326951
 30
0.0
 10
17.4562469174
 20
13.7903122318
 30
0.0
 10
17.4462266097
 20
13.798659655
 30
0.0
 10
17.4378567054
 20
13.8082529899
 30
0.0
 10
17.4334499249
 20
13.8154131259
 30
0.0
 10
17.4315782735
 20
13.8191190777
 30
0.0
  0
SPLINE
  5
398
100
AcDbEntity
  8
0
100
AcDbSpline
 62
7
  6
BYLAYER
 70
0
 71
3
 72
21
 73
17
 74
0
 42
0.0000001
 43
0.0000001
 44
0.0000000001
 40
0.0
 40
0.0
 40
0.0
 40
0.0
 40
0.0504521782
 40
0.1017757112
 40
0.1546895656
 40
0.2097415531
 40
0.2672734473
 40
0.3274169923
 40
0.3901102139
 40
0.4551240622
 40
0.5220931361
 40
0.5905469095
 40
0.7295162677
 40
0.7990005478
 40
0.8676326472
 40
1.0
 40
1.0
 40
1.0
 40
1.0
 10
17.6880626911
 20
13.9449872175
 30
0.0
 10
17.6900620022
 20
13.940792838
 30
0.0
 10
17.6933037513
 20
13.9319292312
 30
0.0
 10
17.6956653649
 20
13.9178049481
 30
0.0
 10
17.6955198773
 20
13.903064142
 30
0.0
 10
17.6928847373
 20
13.8879889921
 30
0.0
 10
17.6878245718
 20
13.8728503795
 30
0.0
 10
17.6804419754
 20
13.8579169482
 30
0.0
 10
17.6708765509
 20
13.8434512439
 30
0.0
 10
17.6593044161
 20
13.8297085548
 30
0.0
 10
17.6459327829
 20
13.8169301578
 30
0.0
 10
17.6259425956
 20
13.8014160936
 30
0.0
 10
17.6035335062
 20
13.7888416796
 30
0.0
 10
17.5796749539
 20
13.7796901652
 30
0.0
 10
17.5556266418
 20
13.7730957168
 30
0.0
 10
17.5370555638
 20
13.7709127827
 30
0.0
 10
17.5248648839
 20
13.7709127827
 30
0.0
  0
SPLINE
  5
399
100
AcDbEntity
  8
0
100
AcDbSpline
 62
7
  6
BYLAYER
 70
0
 71
3
 72
31
 73
27
 74
0
 42
0.0000001
 43
0.0000001
 44
0.0000000001
 40
0.0
 40
0.0
 40
0.0
 40
0.0
 40
0.0155006459
 40
0.0315033822
 40
0.0484546371
 40
0.0667109892
 40
0.0865313027
 40
0.10808554
 40
0.1314693035
 40
0.1567186535
 40
0.18382257
 40
0.2127323091
 40
0.2433682335
 40
0.2756256102
 40
0.3444718938
 40
0.4180908226
 40
0.4950894771
 40
0.5739485634
 40
0.6530827198
 40
0.7308969124
 40
0.8058425994
 40
0.8764763492
 40
0.909777144
 40
0.9415396081
 40
0.9716486497
 40
1.0
 40
1.0
 40
1.0
 40
1.0
 10
18.1874718826
 20
12.7882120002
 30
0.0
 10
18.1856104512
 20
12.7882119377
 30
0.0
 10
18.1818172737
 20
12.7878296692
 30
0.0
 10
18.1762190116
 20
12.7861297123
 30
0.0
 10
18.1707133285
 20
12.7833271558
 30
0.0
 10
18.1653329411
 20
12.7794532037
 30
0.0
 10
18.1601014842
 20
12.7745384964
 30
0.0
 10
18.1550432428
 20
12.7686144012
 30
0.0
 10
18.1501830105
 20
12.7617156328
 30
0.0
 10
18.1455464048
 20
12.7538816969
 30
0.0
 10
18.1411591025
 20
12.7451574632
 30
0.0
 10
18.1370463102
 20
12.7355933166
 30
0.0
 10
18.1332316751
 20
12.7252449351
 30
0.0
 10
18.1284703287
 20
12.7101530446
 30
0.0
 10
18.1234784868
 20
12.6897479758
 30
0.0
 10
18.1190958999
 20
12.6637402496
 30
0.0
 10
18.1163046218
 20
12.6363060192
 30
0.0
 10
18.1151720131
 20
12.6080922109
 30
0.0
 10
18.1157258979
 20
12.5797633094
 30
0.0
 10
18.1179525012
 20
12.5519868435
 30
0.0
 10
18.1217982362
 20
12.5254183114
 30
0.0
 10
18.1263590314
 20
12.5044033783
 30
0.0
 10
18.130793708
 20
12.4887183766
 30
0.0
 10
18.1343900611
 20
12.4778654052
 30
0.0
 10
18.1383001888
 20
12.4677561841
 30
0.0
 10
18.1411903517
 20
12.461353028
 30
0.0
 10
18.1426902403
 20
12.4582965763
 30
0.0
  0
SPLINE
  5
39A
100
AcDbEntity
  8
02___PRT_ALL_AXES
100
AcDbSpline
 62
7
  6
BYLAYER
 70
0
 71
3
 72
20
 73
16
 74
0
 42
0.0000001
 43
0.0000001
 44
0.0000000001
 40
0.0
 40
0.0
 40
0.0
 40
0.0
 40
0.0507340861
 40
0.1026058865
 40
0.1565727167
 40
0.2132905237
 40
0.3355486832
 40
0.4011150499
 40
0.4689001405
 40
0.6080360695
 40
0.6779865412
 40
0.7469988219
 40
0.8143002031
 40
0.879238256
 40
1.0
 40
1.0
 40
1.0
 40
1.0
 10
17.7904011295
 20
14.0471434593
 30
0.0
 10
17.791305531
 20
14.0453009369
 30
0.0
 10
17.7935578275
 20
14.0417668156
 30
0.0
 10
17.7980661487
 20
14.0372539395
 30
0.0
 10
17.8035921545
 20
14.033610225
 30
0.0
 10
17.8123182294
 20
14.0299381524
 30
0.0
 10
17.8222849921
 20
14.0284819815
 30
0.0
 10
17.8326275241
 20
14.0290319193
 30
0.0
 10
17.8435009958
 20
14.0309957941
 30
0.0
 10
17.8541050996
 20
14.0349588241
 30
0.0
 10
17.8638435026
 20
14.0406292353
 30
0.0
 10
17.8705371984
 20
14.0456449807
 30
0.0
 10
17.8764350737
 20
14.0512931165
 30
0.0
 10
17.8828749116
 20
14.059264887
 30
0.0
 10
17.886393189
 20
14.0660777593
 30
0.0
 10
17.887835645
 20
14.0707455488
 30
0.0
  0
SPLINE
  5
39B
100
AcDbEntity
  8
02___PRT_ALL_AXES
100
AcDbSpline
 62
7
  6
BYLAYER
 70
0
 71
3
 72
11
 73
7
 74
0
 42
0.0000001
 43
0.0000001
 44
0.0000000001
 40
0.0
 40
0.0
 40
0.0
 40
0.0
 40
0.2464859593
 40
0.499996602
 40
0.7535093246
 40
1.0
 40
1.0
 40
1.0
 40
1.0
 10
17.8760600841
 20
14.0511852141
 30
0.0
 10
17.8718687324
 20
14.0508044516
 30
0.0
 10
17.8634275241
 20
14.0491784699
 30
0.0
 10
17.8513707378
 20
14.0445110531
 30
0.0
 10
17.8403012913
 20
14.0378311347
 30
0.0
 10
17.8338500404
 20
14.0321495194
 30
0.0
 10
17.8309839667
 20
14.0290675219
 30
0.0
  0
SPLINE
  5
39C
100
AcDbEntity
  8
02___PRT_ALL_AXES
100
AcDbSpline
 62
7
  6
BYLAYER
 70
0
 71
3
 72
14
 73
10
 74
0
 42
0.0000001
 43
0.0000001
 44
0.0000000001
 40
0.0
 40
0.0
 40
0.0
 40
0.0
 40
0.1128399572
 40
0.2271853011
 40
0.3443969944
 40
0.4655774191
 40
0.5915072796
 40
0.722607523
 40
1.0
 40
1.0
 40
1.0
 40
1.0
 10
17.3484553767
 20
14.0471434583
 30
0.0
 10
17.349146918
 20
14.0457345872
 30
0.0
 10
17.3507832673
 20
14.0430107882
 30
0.0
 10
17.3539131752
 20
14.0393576068
 30
0.0
 10
17.3576754161
 20
14.0361772903
 30
0.0
 10
17.3620089832
 20
14.0335170829
 30
0.0
 10
17.366848432
 20
14.0314130943
 30
0.0
 10
17.374005067
 20
14.0293492448
 30
0.0
 10
17.3797213716
 20
14.0287816072
 30
0.0
 10
17.3835795023
 20
14.0287816072
 30
0.0
  0
SPLINE
  5
39D
100
AcDbEntity
  8
0
100
AcDbSpline
 62
7
  6
BYLAYER
 70
0
 71
3
 72
9
 73
5
 74
0
 42
0.0000001
 43
0.0000001
 44
0.0000000001
 40
0.0
 40
0.0
 40
0.0
 40
0.0
 40
0.5033097023
 40
1.0
 40
1.0
 40
1.0
 40
1.0
 10
17.7925526809
 20
13.3851192077
 30
0.0
 10
17.787611885
 20
13.3863727671
 30
0.0
 10
17.7776366472
 20
13.3882812027
 30
0.0
 10
17.7674989526
 20
13.3889263564
 30
0.0
 10
17.7624686515
 20
13.3889263448
 30
0.0
  0
SPLINE
  5
39E
100
AcDbEntity
  8
02___PRT_ALL_AXES
100
AcDbSpline
 62
7
  6
BYLAYER
 70
0
 71
3
 72
11
 73
7
 74
0
 42
0.0000001
 43
0.0000001
 44
0.0000000001
 40
0.0
 40
0.0
 40
0.0
 40
0.0
 40
0.2464859593
 40
0.499996602
 40
0.7535093246
 40
1.0
 40
1.0
 40
1.0
 40
1.0
 10
17.3179654749
 20
13.6753273703
 30
0.0
 10
17.3137741232
 20
13.6749466079
 30
0.0
 10
17.3053329149
 20
13.6733206262
 30
0.0
 10
17.2932761286
 20
13.6686532094
 30
0.0
 10
17.2822066821
 20
13.661973291
 30
0.0
 10
17.2757554313
 20
13.6562916757
 30
0.0
 10
17.2728893575
 20
13.6532096782
 30
0.0
  0
SPLINE
  5
39F
100
AcDbEntity
  8
02___PRT_ALL_AXES
100
AcDbSpline
 62
7
  6
BYLAYER
 70
0
 71
3
 72
20
 73
16
 74
0
 42
0.0000001
 43
0.0000001
 44
0.0000000001
 40
0.0
 40
0.0
 40
0.0
 40
0.0
 40
0.0507340861
 40
0.1026058865
 40
0.1565727167
 40
0.2132905237
 40
0.3355486832
 40
0.4011150499
 40
0.4689001405
 40
0.6080360695
 40
0.6779865412
 40
0.7469988219
 40
0.8143002031
 40
0.879238256
 40
1.0
 40
1.0
 40
1.0
 40
1.0
 10
17.2323065204
 20
13.6712856156
 30
0.0
 10
17.2332109218
 20
13.6694430931
 30
0.0
 10
17.2354632183
 20
13.6659089718
 30
0.0
 10
17.2399715395
 20
13.6613960958
 30
0.0
 10
17.2454975453
 20
13.6577523813
 30
0.0
 10
17.2542236202
 20
13.6540803087
 30
0.0
 10
17.2641903829
 20
13.6526241378
 30
0.0
 10
17.2745329149
 20
13.6531740756
 30
0.0
 10
17.2854063866
 20
13.6551379504
 30
0.0
 10
17.2960104904
 20
13.6591009804
 30
0.0
 10
17.3057488934
 20
13.6647713916
 30
0.0
 10
17.3124425892
 20
13.669787137
 30
0.0
 10
17.3183404645
 20
13.6754352728
 30
0.0
 10
17.3247803024
 20
13.6834070433
 30
0.0
 10
17.3282985798
 20
13.6902199156
 30
0.0
 10
17.3297410359
 20
13.6948877051
 30
0.0
  0
SPLINE
  5
3A0
100
AcDbEntity
  8
02___PRT_ALL_AXES
100
AcDbSpline
 62
7
  6
BYLAYER
 70
0
 71
3
 72
14
 73
10
 74
0
 42
0.0000001
 43
0.0000001
 44
0.0000000001
 40
0.0
 40
0.0
 40
0.0
 40
0.0
 40
0.1128399572
 40
0.2271853011
 40
0.3443969944
 40
0.4655774191
 40
0.5915072796
 40
0.722607523
 40
1.0
 40
1.0
 40
1.0
 40
1.0
 10
17.674252269
 20
13.6712856146
 30
0.0
 10
17.6749438103
 20
13.6698767435
 30
0.0
 10
17.6765801596
 20
13.6671529445
 30
0.0
 10
17.6797100674
 20
13.6634997631
 30
0.0
 10
17.6834723084
 20
13.6603194466
 30
0.0
 10
17.6878058754
 20
13.6576592392
 30
0.0
 10
17.6926453243
 20
13.6555552506
 30
0.0
 10
17.6998019592
 20
13.6534914011
 30
0.0
 10
17.7055182639
 20
13.6529237635
 30
0.0
 10
17.7093763946
 20
13.6529237635
 30
0.0
  0
SPLINE
  5
3A1
100
AcDbEntity
  8
02___PRT_ALL_AXES
100
AcDbSpline
 62
7
  6
BYLAYER
 70
0
 71
3
 72
16
 73
12
 74
0
 42
0.0000001
 43
0.0000001
 44
0.0000000001
 40
0.0
 40
0.0
 40
0.0
 40
0.0
 40
0.2799209716
 40
0.4177528751
 40
0.5497823446
 40
0.673886639
 40
0.789256229
 40
0.8440053617
 40
0.8970855783
 40
0.9489133807
 40
1.0
 40
1.0
 40
1.0
 40
1.0
 10
17.9082621455
 20
12.7902911297
 30
0.0
 10
17.9040959554
 20
12.7871629021
 30
0.0
 10
17.8970354013
 20
12.7834930368
 30
0.0
 10
17.8870559753
 20
12.7810889548
 30
0.0
 10
17.8796938958
 20
12.7806262546
 30
0.0
 10
17.8727923206
 20
12.7815327145
 30
0.0
 10
17.8675991222
 20
12.7834502562
 30
0.0
 10
17.8640517297
 20
12.7856338475
 30
0.0
 10
17.8617534104
 20
12.7875339655
 30
0.0
 10
17.8598044052
 20
12.7896999238
 30
0.0
 10
17.8587507763
 20
12.7913104041
 30
0.0
 10
17.8582939513
 20
12.7921442972
 30
0.0
  0
SPLINE
  5
3A2
100
AcDbEntity
  8
0
100
AcDbSpline
 62
7
  6
BYLAYER
 70
0
 71
3
 72
20
 73
16
 74
0
 42
0.0000001
 43
0.0000001
 44
0.0000000001
 40
0.0
 40
0.0
 40
0.0
 40
0.0
 40
0.0563267027
 40
0.1128443475
 40
0.1697392188
 40
0.2271884169
 40
0.2853558504
 40
0.3443891222
 40
0.465467086
 40
0.5277866968
 40
0.5913601012
 40
0.6562299619
 40
0.7224184341
 40
0.8586788902
 40
1.0
 40
1.0
 40
1.0
 40
1.0
 10
17.2047707125
 20
13.6327424182
 30
0.0
 10
17.2075341287
 20
13.627110871
 30
0.0
 10
17.2135501846
 20
13.616057017
 30
0.0
 10
17.2239621559
 20
13.6002540901
 30
0.0
 10
17.2357308048
 20
13.5852732202
 30
0.0
 10
17.2488102804
 20
13.5711721844
 30
0.0
 10
17.2631523732
 20
13.558002069
 30
0.0
 10
17.2840523019
 20
13.5416155463
 30
0.0
 10
17.3071587575
 20
13.5274290222
 30
0.0
 10
17.3319831841
 20
13.5155521177
 30
0.0
 10
17.3517374545
 20
13.5076885943
 30
0.0
 10
17.3723672688
 20
13.5009890262
 30
0.0
 10
17.4012155299
 20
13.4935679808
 30
0.0
 10
17.4390923915
 20
13.4874030494
 30
0.0
 10
17.4700327681
 20
13.4858321117
 30
0.0
 10
17.4857714897
 20
13.4858321117
 30
0.0
  0
SPLINE
  5
3A3
100
AcDbEntity
  8
0
100
AcDbSpline
 62
7
  6
BYLAYER
 70
0
 71
3
 72
25
 73
21
 74
0
 42
0.0000001
 43
0.0000001
 44
0.0000000001
 40
0.0
 40
0.0
 40
0.0
 40
0.0
 40
0.025198232
 40
0.0505022762
 40
0.076014685
 40
0.1018317726
 40
0.1280410364
 40
0.1547191127
 40
0.2096830704
 40
0.2671263507
 40
0.3271908283
 40
0.3898212635
 40
0.454792459
 40
0.5217400084
 40
0.5901922565
 40
0.6596010403
 40
0.7293718385
 40
0.7988929233
 40
0.8675643848
 40
1.0
 40
1.0
 40
1.0
 40
1.0
 10
17.9742576871
 20
14.0103448706
 30
0.0
 10
17.9773350089
 20
14.0040736172
 30
0.0
 10
17.9829148126
 20
13.9912065012
 30
0.0
 10
17.9894620102
 20
13.9711456499
 30
0.0
 10
17.9941668286
 20
13.9503974212
 30
0.0
 10
17.9970074388
 20
13.9290615917
 30
0.0
 10
17.9979719649
 20
13.9072357655
 30
0.0
 10
17.9967425851
 20
13.8773313354
 30
0.0
 10
17.9903605983
 20
13.8391254475
 30
0.0
 10
17.9754346017
 20
13.7935334886
 30
0.0
 10
17.9534732807
 20
13.7485206872
 30
0.0
 10
17.9248964759
 20
13.7048947932
 30
0.0
 10
17.8902325747
 20
13.6634272929
 30
0.0
 10
17.8501143146
 20
13.6248574295
 30
0.0
 10
17.8052697116
 20
13.5898756103
 30
0.0
 10
17.7565096409
 20
13.559109981
 30
0.0
 10
17.7047214385
 20
13.5331160735
 30
0.0
 10
17.6508223457
 20
13.5123604773
 30
0.0
 10
17.5784214136
 20
13.4924329013
 30
0.0
 10
17.5224860292
 20
13.4858321117
 30
0.0
 10
17.4857714897
 20
13.4858321117
 30
0.0
  0
SPLINE
  5
3A4
100
AcDbEntity
  8
02___PRT_ALL_AXES
100
AcDbSpline
 62
7
  6
BYLAYER
 70
0
 71
3
 72
15
 73
11
 74
0
 42
0.0000001
 43
0.0000001
 44
0.0000000001
 40
0.0
 40
0.0
 40
0.0
 40
0.0
 40
0.0858514607
 40
0.1774209735
 40
0.2792207128
 40
0.3941366111
 40
0.523634043
 40
0.6680989617
 40
0.827213888
 40
1.0
 40
1.0
 40
1.0
 40
1.0
 10
18.3394556053
 20
12.7017071057
 30
0.0
 10
18.338666796
 20
12.7017072289
 30
0.0
 10
18.337028403
 20
12.7014620867
 30
0.0
 10
18.3346670351
 20
12.7003951953
 30
0.0
 10
18.3323972362
 20
12.6986689154
 30
0.0
 10
18.3302358075
 20
12.6963177629
 30
0.0
 10
18.3281980244
 20
12.6933719717
 30
0.0
 10
18.3263033629
 20
12.6898655304
 30
0.0
 10
18.3245735851
 20
12.6858398646
 30
0.0
 10
18.3235819586
 20
12.6829530514
 30
0.0
 10
18.3231132324
 20
12.6814362531
 30
0.0
  0
SPLINE
  5
3A5
100
AcDbEntity
  8
02___PRT_ALL_AXES
100
AcDbSpline
 62
7
  6
BYLAYER
 70
0
 71
3
 72
25
 73
21
 74
0
 42
0.0000001
 43
0.0000001
 44
0.0000000001
 40
0.0
 40
0.0
 40
0.0
 40
0.0
 40
0.0155034836
 40
0.0315088859
 40
0.0484627513
 40
0.0667217116
 40
0.1080391413
 40
0.1566409263
 40
0.2126384539
 40
0.2755247381
 40
0.344383399
 40
0.4180159583
 40
0.4950291248
 40
0.5739033578
 40
0.6530528788
 40
0.7308823758
 40
0.8058427414
 40
0.876490919
 40
0.9415505141
 40
1.0
 40
1.0
 40
1.0
 40
1.0
 10
18.2049674534
 20
12.2665032848
 30
0.0
 10
18.2044284242
 20
12.2665033702
 30
0.0
 10
18.2033299942
 20
12.2663927662
 30
0.0
 10
18.2017088507
 20
12.265900693
 30
0.0
 10
18.2001144092
 20
12.2650893722
 30
0.0
 10
18.197948339
 20
12.2635292452
 30
0.0
 10
18.1953729063
 20
12.2607399677
 30
0.0
 10
18.1926539771
 20
12.2564363852
 30
0.0
 10
18.1902233301
 20
12.2511293003
 30
0.0
 10
18.1881349359
 20
12.2449352068
 30
0.0
 10
18.1864357279
 20
12.2379921228
 30
0.0
 10
18.1851666312
 20
12.2304605144
 30
0.0
 10
18.1843582317
 20
12.2225162334
 30
0.0
 10
18.1840302074
 20
12.2143460508
 30
0.0
 10
18.1841905226
 20
12.2061425255
 30
0.0
 10
18.1848353063
 20
12.1980990412
 30
0.0
 10
18.1859487968
 20
12.1904050167
 30
0.0
 10
18.1875042343
 20
12.1832402597
 30
0.0
 10
18.1894636051
 20
12.1767724765
 30
0.0
 10
18.1911035052
 20
12.1727923171
 30
0.0
 10
18.1919987704
 20
12.1709679584
 30
0.0
  0
SPLINE
  5
3A6
100
AcDbEntity
  8
0
100
AcDbSpline
 62
7
  6
BYLAYER
 70
0
 71
3
 72
22
 73
18
 74
0
 42
0.0000001
 43
0.0000001
 44
0.0000000001
 40
0.0
 40
0.0
 40
0.0
 40
0.0
 40
0.1726685521
 40
0.2539491963
 40
0.3316732566
 40
0.40574049
 40
0.4760836661
 40
0.5426773284
 40
0.6055431254
 40
0.6647577429
 40
0.7204634672
 40
0.7728805611
 40
0.82231825
 40
0.8691856572
 40
0.9139978667
 40
0.9573703825
 40
1.0
 40
1.0
 40
1.0
 40
1.0
 10
17.9362664704
 20
12.9140170387
 30
0.0
 10
17.9406414356
 20
12.9281744316
 30
0.0
 10
17.9477275979
 20
12.948808975
 30
0.0
 10
17.9585096488
 20
12.9751574462
 30
0.0
 10
17.9668442632
 20
12.9933469534
 30
0.0
 10
17.9755632302
 20
13.0103071199
 30
0.0
 10
17.9846400443
 20
13.0259853608
 30
0.0
 10
17.9940469555
 20
13.0403328563
 30
0.0
 10
18.0037555687
 20
13.0533053714
 30
0.0
 10
18.0137373411
 20
13.0648626789
 30
0.0
 10
18.0239638169
 20
13.0749683882
 30
0.0
 10
18.0344062384
 20
13.0835899999
 30
0.0
 10
18.0450360471
 20
13.0906977413
 30
0.0
 10
18.0558234664
 20
13.0962638536
 30
0.0
 10
18.066736984
 20
13.1002631654
 30
0.0
 10
18.0777368591
 20
13.1026735335
 30
0.0
 10
18.0851280898
 20
13.1032119232
 30
0.0
 10
18.0887864525
 20
13.1032119921
 30
0.0
  0
SPLINE
  5
3A7
100
AcDbEntity
  8
0
100
AcDbSpline
 62
7
  6
BYLAYER
 70
0
 71
3
 72
34
 73
30
 74
0
 42
0.0000001
 43
0.0000001
 44
0.0000000001
 40
0.0
 40
0.0
 40
0.0
 40
0.0
 40
0.0330537788
 40
0.067390253
 40
0.1028824652
 40
0.1393990765
 40
0.2149201106
 40
0.2927519785
 40
0.3716150162
 40
0.4110278664
 40
0.4502072957
 40
0.5272124941
 40
0.6013827869
 40
0.6370399104
 40
0.6715594022
 40
0.7048159894
 40
0.7366958342
 40
0.7670985259
 40
0.7959394677
 40
0.8231527967
 40
0.848695072
 40
0.8725499997
 40
0.8947343963
 40
0.9153058248
 40
0.9343719454
 40
0.9521009117
 40
0.9687306045
 40
0.9845719729
 40
1.0
 40
1.0
 40
1.0
 40
1.0
 10
17.9362664704
 20
12.9140170387
 30
0.0
 10
17.933381344
 20
12.9046807665
 30
0.0
 10
17.927891904
 20
12.8855226964
 30
0.0
 10
17.9206085046
 20
12.8559855705
 30
0.0
 10
17.914145345
 20
12.8252111654
 30
0.0
 10
17.9065803538
 20
12.7822506415
 30
0.0
 10
17.8994433663
 20
12.7265367058
 30
0.0
 10
17.8946169697
 20
12.6580217543
 30
0.0
 10
17.8937122561
 20
12.6000207921
 30
0.0
 10
17.89488392
 20
12.5534810788
 30
0.0
 10
17.897305386
 20
12.5075395574
 30
0.0
 10
17.9025988334
 20
12.4514816486
 30
0.0
 10
17.9110137253
 20
12.3968532448
 30
0.0
 10
17.9195725436
 20
12.3550389844
 30
0.0
 10
17.9267337512
 20
12.3253039397
 30
0.0
 10
17.9346850849
 20
12.2969278623
 30
0.0
 10
17.9433878602
 20
12.270048614
 30
0.0
 10
17.9527994872
 20
12.2447966992
 30
0.0
 10
17.9628742666
 20
12.2212942485
 30
0.0
 10
17.9735636852
 20
12.1996544373
 30
0.0
 10
17.9848169856
 20
12.1799808686
 30
0.0
 10
17.9965818004
 20
12.1623671097
 30
0.0
 10
18.0088051542
 20
12.1468966234
 30
0.0
 10
18.0214344044
 20
12.1336432949
 30
0.0
 10
18.0344182653
 20
12.1226729709
 30
0.0
 10
18.0477054375
 20
12.1140463192
 30
0.0
 10
18.061243772
 20
12.1078219919
 30
0.0
 10
18.0749624495
 20
12.1040565414
 30
0.0
 10
18.0842272709
 20
12.1032120313
 30
0.0
 10
18.0887883549
 20
12.1032121171
 30
0.0
  0
SPLINE
  5
3A8
100
AcDbEntity
  8
02___PRT_ALL_AXES
100
AcDbSpline
 62
7
  6
BYLAYER
 70
0
 71
3
 72
15
 73
11
 74
0
 42
0.0000001
 43
0.0000001
 44
0.0000000001
 40
0.0
 40
0.0
 40
0.0
 40
0.0
 40
0.0858514607
 40
0.1774209735
 40
0.2792207128
 40
0.3941366111
 40
0.523634043
 40
0.6680989617
 40
0.827213888
 40
1.0
 40
1.0
 40
1.0
 40
1.0
 10
18.0354911036
 20
12.6118597768
 30
0.0
 10
18.0347022943
 20
12.6118599
 30
0.0
 10
18.0330639013
 20
12.6116147579
 30
0.0
 10
18.0307025334
 20
12.6105478664
 30
0.0
 10
18.0284327345
 20
12.6088215865
 30
0.0
 10
18.0262713058
 20
12.606470434
 30
0.0
 10
18.0242335227
 20
12.6035246428
 30
0.0
 10
18.0223388612
 20
12.6000182015
 30
0.0
 10
18.0206090834
 20
12.5959925357
 30
0.0
 10
18.0196174569
 20
12.5931057226
 30
0.0
 10
18.0191487308
 20
12.5915889242
 30
0.0
  0
SPLINE
  5
3A9
100
AcDbEntity
  8
02___PRT_ALL_AXES
100
AcDbSpline
 62
7
  6
BYLAYER
 70
0
 71
3
 72
11
 73
7
 74
0
 42
0.0000001
 43
0.0000001
 44
0.0000000001
 40
0.0
 40
0.0
 40
0.0
 40
0.0
 40
0.2464915919
 40
0.5000011483
 40
0.753511512
 40
1.0
 40
1.0
 40
1.0
 40
1.0
 10
17.759911317
 20
13.6753273361
 30
0.0
 10
17.7557198403
 20
13.6749466519
 30
0.0
 10
17.7472785186
 20
13.6733205388
 30
0.0
 10
17.7352216429
 20
13.6686531038
 30
0.0
 10
17.724152246
 20
13.6619731513
 30
0.0
 10
17.7177010452
 20
13.6562915352
 30
0.0
 10
17.7148349912
 20
13.6532095414
 30
0.0
  0
SPLINE
  5
3AA
100
AcDbEntity
  8
02___PRT_ALL_AXES
100
AcDbSpline
 62
7
  6
BYLAYER
 70
0
 71
3
 72
11
 73
7
 74
0
 42
0.0000001
 43
0.0000001
 44
0.0000000001
 40
0.0
 40
0.0
 40
0.0
 40
0.0
 40
0.2464915919
 40
0.5000011483
 40
0.753511512
 40
1.0
 40
1.0
 40
1.0
 40
1.0
 10
17.4341144248
 20
14.0511851798
 30
0.0
 10
17.4299229481
 20
14.0508044957
 30
0.0
 10
17.4214816264
 20
14.0491783825
 30
0.0
 10
17.4094247506
 20
14.0445109475
 30
0.0
 10
17.3983553537
 20
14.037830995
 30
0.0
 10
17.3919041529
 20
14.032149379
 30
0.0
 10
17.3890380989
 20
14.0290673851
 30
0.0
  0
SPLINE
  5
3AB
100
AcDbEntity
  8
02___PRT_ALL_AXES
100
AcDbSpline
 62
7
  6
BYLAYER
 70
0
 71
3
 72
25
 73
21
 74
0
 42
0.0000001
 43
0.0000001
 44
0.0000000001
 40
0.0
 40
0.0
 40
0.0
 40
0.0
 40
0.0155034836
 40
0.0315088859
 40
0.0484627513
 40
0.0667217116
 40
0.1080391413
 40
0.1566409263
 40
0.2126384539
 40
0.2755247381
 40
0.344383399
 40
0.4180159583
 40
0.4950291248
 40
0.5739033578
 40
0.6530528788
 40
0.7308823758
 40
0.8058427414
 40
0.876490919
 40
0.9415505141
 40
1.0
 40
1.0
 40
1.0
 40
1.0
 10
18.1699792555
 20
13.047063594
 30
0.0
 10
18.1694402263
 20
13.0470636794
 30
0.0
 10
18.1683417964
 20
13.0469530753
 30
0.0
 10
18.1667206528
 20
13.0464610022
 30
0.0
 10
18.1651262113
 20
13.0456496814
 30
0.0
 10
18.1629601411
 20
13.0440895544
 30
0.0
 10
18.1603847084
 20
13.0413002768
 30
0.0
 10
18.1576657792
 20
13.0369966944
 30
0.0
 10
18.1552351322
 20
13.0316896095
 30
0.0
 10
18.153146738
 20
13.0254955159
 30
0.0
 10
18.15144753
 20
13.018552432
 30
0.0
 10
18.1501784333
 20
13.0110208236
 30
0.0
 10
18.1493700338
 20
13.0030765426
 30
0.0
 10
18.1490420095
 20
12.99490636
 30
0.0
 10
18.1492023247
 20
12.9867028346
 30
0.0
 10
18.1498471084
 20
12.9786593503
 30
0.0
 10
18.150960599
 20
12.9709653259
 30
0.0
 10
18.1525160364
 20
12.9638005689
 30
0.0
 10
18.1544754072
 20
12.9573327857
 30
0.0
 10
18.1561153073
 20
12.9533526262
 30
0.0
 10
18.1570105725
 20
12.9515282676
 30
0.0
  0
SPLINE
  5
3AC
100
AcDbEntity
  8
0
100
AcDbSpline
 62
7
  6
BYLAYER
 70
0
 71
3
 72
34
 73
30
 74
0
 42
0.0000001
 43
0.0000001
 44
0.0000000001
 40
0.0
 40
0.0
 40
0.0
 40
0.0
 40
0.0154280271
 40
0.0312693955
 40
0.0478990883
 40
0.0656280546
 40
0.0846941752
 40
0.1052656037
 40
0.1274500003
 40
0.151304928
 40
0.1768472033
 40
0.2040605323
 40
0.2329014741
 40
0.2633041658
 40
0.2951840106
 40
0.3284405978
 40
0.3629600896
 40
0.3986172131
 40
0.4727875059
 40
0.5497927043
 40
0.5889721336
 40
0.6283849838
 40
0.7072480215
 40
0.7850798894
 40
0.8606009235
 40
0.8971175348
 40
0.932609747
 40
0.9669462212
 40
1.0
 40
1.0
 40
1.0
 40
1.0
 10
18.187471559
 20
13.1032119921
 30
0.0
 10
18.192032643
 20
13.103212078
 30
0.0
 10
18.2012974644
 20
13.1023675678
 30
0.0
 10
18.2150161419
 20
13.0986021173
 30
0.0
 10
18.2285544764
 20
13.09237779
 30
0.0
 10
18.2418416485
 20
13.0837511383
 30
0.0
 10
18.2548255094
 20
13.0727808143
 30
0.0
 10
18.2674547597
 20
13.0595274858
 30
0.0
 10
18.2796781135
 20
13.0440569996
 30
0.0
 10
18.2914429283
 20
13.0264432406
 30
0.0
 10
18.3026962286
 20
13.0067696719
 30
0.0
 10
18.3133856472
 20
12.9851298607
 30
0.0
 10
18.3234604267
 20
12.96162741
 30
0.0
 10
18.3328720537
 20
12.9363754952
 30
0.0
 10
18.3415748289
 20
12.9094962469
 30
0.0
 10
18.3495261627
 20
12.8811201695
 30
0.0
 10
18.3566873702
 20
12.8513851248
 30
0.0
 10
18.3652461885
 20
12.8095708644
 30
0.0
 10
18.3736610804
 20
12.7549424606
 30
0.0
 10
18.3789545278
 20
12.6988845519
 30
0.0
 10
18.3813759939
 20
12.6529430304
 30
0.0
 10
18.3825476578
 20
12.6064033171
 30
0.0
 10
18.3816429441
 20
12.5484023549
 30
0.0
 10
18.3768165476
 20
12.4798874034
 30
0.0
 10
18.36967956
 20
12.4241734677
 30
0.0
 10
18.3621145689
 20
12.3812129438
 30
0.0
 10
18.3556514093
 20
12.3504385388
 30
0.0
 10
18.3483680099
 20
12.3209014128
 30
0.0
 10
18.3428785698
 20
12.3017433427
 30
0.0
 10
18.3399934435
 20
12.2924070705
 30
0.0
  0
SPLINE
  5
3AD
100
AcDbEntity
  8
0
100
AcDbSpline
 62
7
  6
BYLAYER
 70
0
 71
3
 72
22
 73
18
 74
0
 42
0.0000001
 43
0.0000001
 44
0.0000000001
 40
0.0
 40
0.0
 40
0.0
 40
0.0
 40
0.0426296175
 40
0.0860021333
 40
0.1308143428
 40
0.17768175
 40
0.2271194389
 40
0.2795365328
 40
0.3352422571
 40
0.3944568746
 40
0.4573226716
 40
0.5239163339
 40
0.59425951
 40
0.6683267434
 40
0.7460508037
 40
0.8273314479
 40
1.0
 40
1.0
 40
1.0
 40
1.0
 10
18.1874734614
 20
12.1032121171
 30
0.0
 10
18.1911318241
 20
12.103212186
 30
0.0
 10
18.1985230547
 20
12.1037505757
 30
0.0
 10
18.2095229298
 20
12.1061609438
 30
0.0
 10
18.2204364474
 20
12.1101602556
 30
0.0
 10
18.2312238668
 20
12.1157263679
 30
0.0
 10
18.2418536755
 20
12.1228341094
 30
0.0
 10
18.252296097
 20
12.1314557211
 30
0.0
 10
18.2625225728
 20
12.1415614303
 30
0.0
 10
18.2725043451
 20
12.1531187379
 30
0.0
 10
18.2822129583
 20
12.1660912529
 30
0.0
 10
18.2916198695
 20
12.1804387484
 30
0.0
 10
18.3006966836
 20
12.1961169893
 30
0.0
 10
18.3094156507
 20
12.2130771558
 30
0.0
 10
18.3177502651
 20
12.231266663
 30
0.0
 10
18.3285323159
 20
12.2576151342
 30
0.0
 10
18.3356184782
 20
12.2782496776
 30
0.0
 10
18.3399934435
 20
12.2924070705
 30
0.0
  0
SPLINE
  5
3AE
100
AcDbEntity
  8
0
100
AcDbSpline
 62
7
  6
BYLAYER
 70
0
 71
3
 72
16
 73
12
 74
0
 42
0.0000001
 43
0.0000001
 44
0.0000000001
 40
0.0
 40
0.0
 40
0.0
 40
0.0
 40
0.0576277419
 40
0.1151846947
 40
0.2308432379
 40
0.3481703197
 40
0.4683415278
 40
0.5925488015
 40
0.7219264765
 40
0.857472839
 40
1.0
 40
1.0
 40
1.0
 40
1.0
 10
17.6147621239
 20
11.6215774405
 30
0.0
 10
17.6193827285
 20
11.6212292383
 30
0.0
 10
17.6286496754
 20
11.6208894372
 30
0.0
 10
17.6472103419
 20
11.6216505232
 30
0.0
 10
17.6703828091
 20
11.6253214565
 30
0.0
 10
17.6975489913
 20
11.6339121422
 30
0.0
 10
17.723883381
 20
11.6464544799
 30
0.0
 10
17.7492516169
 20
11.6626960741
 30
0.0
 10
17.7736165351
 20
11.6824169399
 30
0.0
 10
17.7969840796
 20
11.7054428554
 30
0.0
 10
17.8115288712
 20
11.7224613448
 30
0.0
 10
17.8186510304
 20
11.7314397874
 30
0.0
  0
SPLINE
  5
3AF
100
AcDbEntity
  8
0
100
AcDbSpline
 62
7
  6
BYLAYER
 70
0
 71
3
 72
13
 73
9
 74
0
 42
0.0000001
 43
0.0000001
 44
0.0000000001
 40
0.0
 40
0.0
 40
0.0
 40
0.0
 40
0.1191450813
 40
0.2389976494
 40
0.3601174271
 40
0.4830201334
 40
0.7356687789
 40
1.0
 40
1.0
 40
1.0
 40
1.0
 10
18.0514262492
 20
13.3504106496
 30
0.0
 10
18.0529714956
 20
13.347086419
 30
0.0
 10
18.0557324012
 20
13.3402547488
 30
0.0
 10
18.0588280723
 20
13.3295975843
 30
0.0
 10
18.0608691032
 20
13.3185704419
 30
0.0
 10
18.0621825365
 20
13.3033247032
 30
0.0
 10
18.061066104
 20
13.2835534031
 30
0.0
 10
18.0574251636
 20
13.2679858642
 30
0.0
 10
18.0549739614
 20
13.2602311646
 30
0.0
  0
SPLINE
  5
3B0
100
AcDbEntity
  8
0
100
AcDbSpline
 62
7
  6
BYLAYER
 70
0
 71
3
 72
20
 73
16
 74
0
 42
0.0000001
 43
0.0000001
 44
0.0000000001
 40
0.0
 40
0.0
 40
0.0
 40
0.0
 40
0.0563267027
 40
0.1128443475
 40
0.1697392188
 40
0.2271884169
 40
0.2853558504
 40
0.3443891222
 40
0.465467086
 40
0.5277866968
 40
0.5913601012
 40
0.6562299619
 40
0.7224184341
 40
0.8586788902
 40
1.0
 40
1.0
 40
1.0
 40
1.0
 10
17.1747022999
 20
13.6940154008
 30
0.0
 10
17.1774657161
 20
13.6883838536
 30
0.0
 10
17.183481772
 20
13.6773299995
 30
0.0
 10
17.1938937434
 20
13.6615270727
 30
0.0
 10
17.2056623922
 20
13.6465462027
 30
0.0
 10
17.2187418678
 20
13.632445167
 30
0.0
 10
17.2330839607
 20
13.6192750516
 30
0.0
 10
17.2539838894
 20
13.6028885288
 30
0.0
 10
17.2770903449
 20
13.5887020048
 30
0.0
 10
17.3019147715
 20
13.5768251003
 30
0.0
 10
17.3216690419
 20
13.5689615768
 30
0.0
 10
17.3422988563
 20
13.5622620087
 30
0.0
 10
17.3711471173
 20
13.5548409633
 30
0.0
 10
17.4090239789
 20
13.548676032
 30
0.0
 10
17.4399643555
 20
13.5471050943
 30
0.0
 10
17.4557030772
 20
13.5471050943
 30
0.0
  0
SPLINE
  5
3B1
100
AcDbEntity
  8
0
100
AcDbSpline
 62
7
  6
BYLAYER
 70
0
 71
3
 72
14
 73
10
 74
0
 42
0.0000001
 43
0.0000001
 44
0.0000000001
 40
0.0
 40
0.0
 40
0.0
 40
0.0
 40
0.2775297798
 40
0.4086357023
 40
0.5345216098
 40
0.6556373109
 40
0.7727875752
 40
0.8871095959
 40
1.0
 40
1.0
 40
1.0
 40
1.0
 10
17.5940266905
 20
13.9947204712
 30
0.0
 10
17.6043987354
 20
13.9947204712
 30
0.0
 10
17.6197658326
 20
13.9931819369
 30
0.0
 10
17.6389860131
 20
13.9875855101
 30
0.0
 10
17.6519644461
 20
13.9818813243
 30
0.0
 10
17.6635645833
 20
13.9746716327
 30
0.0
 10
17.6736079523
 20
13.9660553697
 30
0.0
 10
17.6819285025
 20
13.9561632167
 30
0.0
 10
17.6862473207
 20
13.9487957053
 30
0.0
 10
17.6880626911
 20
13.9449872175
 30
0.0
  0
SPLINE
  5
3B2
100
AcDbEntity
  8
0
100
AcDbSpline
 62
7
  6
BYLAYER
 70
0
 71
3
 72
15
 73
11
 74
0
 42
0.0000001
 43
0.0000001
 44
0.0000000001
 40
0.0
 40
0.0
 40
0.0
 40
0.0
 40
0.1639842599
 40
0.315435485
 40
0.4543864559
 40
0.5813405284
 40
0.6973101785
 40
0.803985338
 40
0.9038199057
 40
1.0
 40
1.0
 40
1.0
 40
1.0
 10
18.23225478
 20
12.7481275329
 30
0.0
 10
18.2307353755
 20
12.7512237538
 30
0.0
 10
18.2276171243
 20
12.757087252
 30
0.0
 10
18.22247504
 20
12.7651558981
 30
0.0
 10
18.2170825279
 20
12.7721010581
 30
0.0
 10
18.2114718219
 20
12.7778753838
 30
0.0
 10
18.2056723404
 20
12.7824371913
 30
0.0
 10
18.1997121463
 20
12.7857457673
 30
0.0
 10
18.1936300603
 20
12.7877581765
 30
0.0
 10
18.1894947548
 20
12.7882120681
 30
0.0
 10
18.1874718826
 20
12.7882120002
 30
0.0
  0
SPLINE
  5
3B3
100
AcDbEntity
  8
02___PRT_ALL_AXES
100
AcDbSpline
 62
7
  6
BYLAYER
 70
0
 71
3
 72
18
 73
14
 74
0
 42
0.0000001
 43
0.0000001
 44
0.0000000001
 40
0.0
 40
0.0
 40
0.0
 40
0.0
 40
0.116823999
 40
0.17913916
 40
0.24363308
 40
0.3771855886
 40
0.5133410582
 40
0.6472290108
 40
0.7744314232
 40
0.8346356455
 40
0.8922436785
 40
0.9472848856
 40
1.0
 40
1.0
 40
1.0
 40
1.0
 10
17.8570960823
 20
12.8083433441
 30
0.0
 10
17.8579100677
 20
12.8109774018
 30
0.0
 10
17.8597880054
 20
12.8148396777
 30
0.0
 10
17.8631952267
 20
12.8194788538
 30
0.0
 10
17.8673813844
 20
12.8239941902
 30
0.0
 10
17.8736562198
 20
12.8288715619
 30
0.0
 10
17.8822319049
 20
12.8331519052
 30
0.0
 10
17.8913365943
 20
12.8356319845
 30
0.0
 10
17.8989803745
 20
12.836049113
 30
0.0
 10
17.9047271448
 20
12.835293721
 30
0.0
 10
17.9086785962
 20
12.8342270894
 30
0.0
 10
17.9122718205
 20
12.8326686703
 30
0.0
 10
17.9144258726
 20
12.8312908047
 30
0.0
 10
17.9154107076
 20
12.8305307188
 30
0.0
  0
SPLINE
  5
3B4
100
AcDbEntity
  8
02___PRT_ALL_AXES
100
AcDbSpline
 62
7
  6
BYLAYER
 70
0
 71
3
 72
14
 73
10
 74
0
 42
0.0000001
 43
0.0000001
 44
0.0000000001
 40
0.0
 40
0.0
 40
0.0
 40
0.0
 40
0.1128399572
 40
0.2271853011
 40
0.3443969944
 40
0.4655774191
 40
0.5915072796
 40
0.722607523
 40
1.0
 40
1.0
 40
1.0
 40
1.0
 10
17.7704361977
 20
13.7184897956
 30
0.0
 10
17.7697446564
 20
13.7198986667
 30
0.0
 10
17.7681083071
 20
13.7226224657
 30
0.0
 10
17.7649783992
 20
13.7262756472
 30
0.0
 10
17.7612161583
 20
13.7294559636
 30
0.0
 10
17.7568825912
 20
13.7321161711
 30
0.0
 10
17.7520431424
 20
13.7342201597
 30
0.0
 10
17.7448865074
 20
13.7362840091
 30
0.0
 10
17.7391702028
 20
13.7368516467
 30
0.0
 10
17.7353120721
 20
13.7368516467
 30
0.0
  0
SPLINE
  5
3B5
100
AcDbEntity
  8
0
100
AcDbSpline
 62
7
  6
BYLAYER
 70
0
 71
3
 72
21
 73
17
 74
0
 42
0.0000001
 43
0.0000001
 44
0.0000000001
 40
0.0
 40
0.0
 40
0.0
 40
0.0
 40
0.0504774
 40
0.1017427182
 40
0.1545424836
 40
0.2094538996
 40
0.2668450814
 40
0.3268683203
 40
0.3894755292
 40
0.4544451778
 40
0.521413766
 40
0.589908147
 40
0.7290522548
 40
0.7986549176
 40
0.8674110208
 40
1.0
 40
1.0
 40
1.0
 40
1.0
 10
17.4315782735
 20
13.8191190777
 30
0.0
 10
17.4294696949
 20
13.8232941556
 30
0.0
 10
17.4260112241
 20
13.8321356289
 30
0.0
 10
17.4233525025
 20
13.8462844612
 30
0.0
 10
17.4232390835
 20
13.8610889707
 30
0.0
 10
17.4256579727
 20
13.8762601031
 30
0.0
 10
17.4305467218
 20
13.8915202768
 30
0.0
 10
17.4378035602
 20
13.9065943446
 30
0.0
 10
17.4472885432
 20
13.9212133307
 30
0.0
 10
17.4588241142
 20
13.9351154495
 30
0.0
 10
17.4722004237
 20
13.9480530841
 30
0.0
 10
17.4922512455
 20
13.9637750981
 30
0.0
 10
17.5147811806
 20
13.9765257672
 30
0.0
 10
17.5387983072
 20
13.985810259
 30
0.0
 10
17.5630229973
 20
13.9925032806
 30
0.0
 10
17.5817407589
 20
13.9947204712
 30
0.0
 10
17.5940266905
 20
13.9947204712
 30
0.0
  0
SPLINE
  5
3B6
100
AcDbEntity
  8
0
100
AcDbSpline
 62
7
  6
BYLAYER
 70
0
 71
3
 72
22
 73
18
 74
0
 42
0.0000001
 43
0.0000001
 44
0.0000000001
 40
0.0
 40
0.0
 40
0.0
 40
0.0
 40
0.0522282372
 40
0.1049002929
 40
0.1584326815
 40
0.2131911792
 40
0.2694736877
 40
0.3275002831
 40
0.3874097956
 40
0.4492614499
 40
0.5130399282
 40
0.5786624712
 40
0.6459870241
 40
0.7148207633
 40
0.7849286524
 40
0.8560418552
 40
1.0
 40
1.0
 40
1.0
 40
1.0
 10
17.9441892745
 20
14.0716178531
 30
0.0
 10
17.9485844006
 20
14.0626610553
 30
0.0
 10
17.9562104078
 20
14.0440532268
 30
0.0
 10
17.9638803025
 20
14.0146897843
 30
0.0
 10
17.9677403304
 20
13.9840993056
 30
0.0
 10
17.9677589869
 20
13.952583676
 30
0.0
 10
17.9639468929
 20
13.9204407489
 30
0.0
 10
17.9563491781
 20
13.8879721651
 30
0.0
 10
17.9450449976
 20
13.855478826
 30
0.0
 10
17.9301458172
 20
13.8232602284
 30
0.0
 10
17.9117945237
 20
13.7916125324
 30
0.0
 10
17.8901645472
 20
13.7608266497
 30
0.0
 10
17.8654582772
 20
13.7311856521
 30
0.0
 10
17.8379071277
 20
13.7029633301
 30
0.0
 10
17.8077637297
 20
13.6764176699
 30
0.0
 10
17.7643385198
 20
13.6434697165
 30
0.0
 10
17.7289888874
 20
13.6221823706
 30
0.0
 10
17.7045064116
 20
13.6096580635
 30
0.0
  0
SPLINE
  5
3B7
100
AcDbEntity
  8
0
100
AcDbSpline
 62
7
  6
BYLAYER
 70
0
 71
3
 72
11
 73
7
 74
0
 42
0.0000001
 43
0.0000001
 44
0.0000000001
 40
0.0
 40
0.0
 40
0.0
 40
0.0
 40
0.2564317545
 40
0.5103695983
 40
0.7590363261
 40
1.0
 40
1.0
 40
1.0
 40
1.0
 10
17.7045064116
 20
13.6096580635
 30
0.0
 10
17.6848156421
 20
13.5995850118
 30
0.0
 10
17.6444711962
 20
13.5817068057
 30
0.0
 10
17.5818896099
 20
13.5620189018
 30
0.0
 10
17.518757947
 20
13.5499387089
 30
0.0
 10
17.47648663
 20
13.5471050943
 30
0.0
 10
17.4557030772
 20
13.5471050943
 30
0.0
  0
SPLINE
  5
3B8
100
AcDbEntity
  8
02___PRT_ALL_AXES
100
AcDbSpline
 62
7
  6
BYLAYER
 70
0
 71
3
 72
24
 73
20
 74
0
 42
0.0000001
 43
0.0000001
 44
0.0000000001
 40
0.0
 40
0.0
 40
0.0
 40
0.0
 40
0.0673958727
 40
0.1394151215
 40
0.2149562047
 40
0.2928090253
 40
0.3716932701
 40
0.4502994007
 40
0.5273256526
 40
0.6015164369
 40
0.6717022604
 40
0.7368442277
 40
0.7960876979
 40
0.8488343889
 40
0.8948506693
 40
0.9344421834
 40
0.9687216521
 40
0.9845676783
 40
1.0
 40
1.0
 40
1.0
 40
1.0
 10
18.0518317879
 20
12.5249878561
 30
0.0
 10
18.052461895
 20
12.5270268834
 30
0.0
 10
18.0535893402
 20
12.5313003406
 30
0.0
 10
18.0548694062
 20
12.5379901675
 30
0.0
 10
18.0557770906
 20
12.5450744856
 30
0.0
 10
18.0562942172
 20
12.5524154159
 30
0.0
 10
18.0564104822
 20
12.5598705888
 30
0.0
 10
18.0561235678
 20
12.5672949786
 30
0.0
 10
18.0554391964
 20
12.5745442812
 30
0.0
 10
18.0543710224
 20
12.5814778284
 30
0.0
 10
18.0529402717
 20
12.5879616244
 30
0.0
 10
18.0511752402
 20
12.5938713597
 30
0.0
 10
18.0491099654
 20
12.5990954262
 30
0.0
 10
18.0467831538
 20
12.6035380577
 30
0.0
 10
18.0442311819
 20
12.6071213771
 30
0.0
 10
18.0414889477
 20
12.6097844651
 30
0.0
 10
18.0389833968
 20
12.6112172905
 30
0.0
 10
18.0369724579
 20
12.6117690984
 30
0.0
 10
18.0359797855
 20
12.6118597005
 30
0.0
 10
18.0354911036
 20
12.6118597768
 30
0.0
  0
SPLINE
  5
3B9
100
AcDbEntity
  8
02___PRT_ALL_AXES
100
AcDbSpline
 62
7
  6
BYLAYER
 70
0
 71
3
 72
15
 73
11
 74
0
 42
0.0000001
 43
0.0000001
 44
0.0000000001
 40
0.0
 40
0.0
 40
0.0
 40
0.0
 40
0.0858514607
 40
0.1774209735
 40
0.2792207128
 40
0.3941366111
 40
0.523634043
 40
0.6680989617
 40
0.827213888
 40
1.0
 40
1.0
 40
1.0
 40
1.0
 10
18.3394539168
 20
12.5945643324
 30
0.0
 10
18.340242726
 20
12.5945642092
 30
0.0
 10
18.341881119
 20
12.5948093514
 30
0.0
 10
18.3442424869
 20
12.5958762428
 30
0.0
 10
18.3465122859
 20
12.5976025228
 30
0.0
 10
18.3486737145
 20
12.5999536752
 30
0.0
 10
18.3507114976
 20
12.6028994664
 30
0.0
 10
18.3526061591
 20
12.6064059078
 30
0.0
 10
18.3543359369
 20
12.6104315735
 30
0.0
 10
18.3553275634
 20
12.6133183867
 30
0.0
 10
18.3557962896
 20
12.614835185
 30
0.0
  0
SPLINE
  5
3BA
100
AcDbEntity
  8
0
100
AcDbSpline
 62
7
  6
BYLAYER
 70
0
 71
3
 72
31
 73
27
 74
0
 42
0.0000001
 43
0.0000001
 44
0.0000000001
 40
0.0
 40
0.0
 40
0.0
 40
0.0
 40
0.0155006459
 40
0.0315033822
 40
0.0484546371
 40
0.0667109892
 40
0.0865313027
 40
0.10808554
 40
0.1314693035
 40
0.1567186535
 40
0.18382257
 40
0.2127323091
 40
0.2433682335
 40
0.2756256102
 40
0.3444718938
 40
0.4180908226
 40
0.4950894771
 40
0.5739485634
 40
0.6530827198
 40
0.7308969124
 40
0.8058425994
 40
0.8764763492
 40
0.909777144
 40
0.9415396081
 40
0.9716486497
 40
1.0
 40
1.0
 40
1.0
 40
1.0
 10
18.1874731377
 20
12.418212109
 30
0.0
 10
18.1893345691
 20
12.4182121715
 30
0.0
 10
18.1931277467
 20
12.4185944401
 30
0.0
 10
18.1987260088
 20
12.420294397
 30
0.0
 10
18.2042316919
 20
12.4230969534
 30
0.0
 10
18.2096120793
 20
12.4269709055
 30
0.0
 10
18.2148435362
 20
12.4318856128
 30
0.0
 10
18.2199017775
 20
12.437809708
 30
0.0
 10
18.2247620099
 20
12.4447084765
 30
0.0
 10
18.2293986155
 20
12.4525424124
 30
0.0
 10
18.2337859178
 20
12.461266646
 30
0.0
 10
18.2378987101
 20
12.4708307926
 30
0.0
 10
18.2417133453
 20
12.4811791741
 30
0.0
 10
18.2464746916
 20
12.4962710646
 30
0.0
 10
18.2514665335
 20
12.5166761334
 30
0.0
 10
18.2558491204
 20
12.5426838596
 30
0.0
 10
18.2586403985
 20
12.57011809
 30
0.0
 10
18.2597730072
 20
12.5983318983
 30
0.0
 10
18.2592191224
 20
12.6266607998
 30
0.0
 10
18.2569925191
 20
12.6544372657
 30
0.0
 10
18.2531467842
 20
12.6810057978
 30
0.0
 10
18.2485859889
 20
12.7020207309
 30
0.0
 10
18.2441513123
 20
12.7177057327
 30
0.0
 10
18.2405549592
 20
12.7285587041
 30
0.0
 10
18.2366448316
 20
12.7386679252
 30
0.0
 10
18.2337546686
 20
12.7450710812
 30
0.0
 10
18.23225478
 20
12.7481275329
 30
0.0
  0
SPLINE
  5
3BB
100
AcDbEntity
  8
0
100
AcDbSpline
 62
7
  6
BYLAYER
 70
0
 71
3
 72
13
 73
9
 74
0
 42
0.0000001
 43
0.0000001
 44
0.0000000001
 40
0.0
 40
0.0
 40
0.0
 40
0.0
 40
0.2294501389
 40
0.3503308589
 40
0.4748989326
 40
0.6027432482
 40
0.7333360798
 40
1.0
 40
1.0
 40
1.0
 40
1.0
 10
18.0549739614
 20
13.2602311646
 30
0.0
 10
18.0511440585
 20
13.248114765
 30
0.0
 10
18.0430576613
 20
13.2302621849
 30
0.0
 10
18.028785544
 20
13.2081463018
 30
0.0
 10
18.0159749676
 20
13.191878576
 30
0.0
 10
18.0014024597
 20
13.1764278376
 30
0.0
 10
17.9797103389
 20
13.1570225177
 30
0.0
 10
17.9615337506
 20
13.1444080188
 30
0.0
 10
17.9487869418
 20
13.136950136
 30
0.0
  0
SPLINE
  5
3BC
100
AcDbEntity
  8
0
100
AcDbSpline
 62
7
  6
BYLAYER
 70
0
 71
3
 72
11
 73
7
 74
0
 42
0.0000001
 43
0.0000001
 44
0.0000000001
 40
0.0
 40
0.0
 40
0.0
 40
0.0
 40
0.2490946793
 40
0.498019135
 40
0.7479259242
 40
1.0
 40
1.0
 40
1.0
 40
1.0
 10
17.9487869418
 20
13.136950136
 30
0.0
 10
17.9379405977
 20
13.1587866372
 30
0.0
 10
17.9150293642
 20
13.201847666
 30
0.0
 10
17.8771793464
 20
13.2645481445
 30
0.0
 10
17.8362298098
 20
13.3256113555
 30
0.0
 10
17.8073306322
 20
13.3653608145
 30
0.0
 10
17.7925526809
 20
13.3851192077
 30
0.0
  0
SPLINE
  5
3BD
100
AcDbEntity
  8
02___PRT_ALL_AXES
100
AcDbSpline
 62
7
  6
BYLAYER
 70
0
 71
3
 72
25
 73
21
 74
0
 42
0.0000001
 43
0.0000001
 44
0.0000000001
 40
0.0
 40
0.0
 40
0.0
 40
0.0
 40
0.0155034836
 40
0.0315088859
 40
0.0484627513
 40
0.0667217116
 40
0.1080391413
 40
0.1566409263
 40
0.2126384539
 40
0.2755247381
 40
0.344383399
 40
0.4180159583
 40
0.4950291248
 40
0.5739033578
 40
0.6530528788
 40
0.7308823758
 40
0.8058427414
 40
0.876490919
 40
0.9415505141
 40
1.0
 40
1.0
 40
1.0
 40
1.0
 10
18.2049657649
 20
12.1593605152
 30
0.0
 10
18.205504794
 20
12.1593604298
 30
0.0
 10
18.206603224
 20
12.1594710339
 30
0.0
 10
18.2082243675
 20
12.1599631071
 30
0.0
 10
18.2098188091
 20
12.1607744278
 30
0.0
 10
18.2119848792
 20
12.1623345549
 30
0.0
 10
18.214560312
 20
12.1651238324
 30
0.0
 10
18.2172792411
 20
12.1694274148
 30
0.0
 10
18.2197098881
 20
12.1747344997
 30
0.0
 10
18.2217982823
 20
12.1809285933
 30
0.0
 10
18.2234974904
 20
12.1878716773
 30
0.0
 10
18.224766587
 20
12.1954032857
 30
0.0
 10
18.2255749865
 20
12.2033475667
 30
0.0
 10
18.2259030109
 20
12.2115177493
 30
0.0
 10
18.2257426957
 20
12.2197212746
 30
0.0
 10
18.225097912
 20
12.2277647589
 30
0.0
 10
18.2239844214
 20
12.2354587833
 30
0.0
 10
18.2224289839
 20
12.2426235403
 30
0.0
 10
18.2204696132
 20
12.2490913235
 30
0.0
 10
18.2188297131
 20
12.253071483
 30
0.0
 10
18.2179344479
 20
12.2548958416
 30
0.0
  0
SPLINE
  5
3BE
100
AcDbEntity
  8
0
100
AcDbSpline
 62
7
  6
BYLAYER
 70
0
 71
3
 72
14
 73
10
 74
0
 42
0.0000001
 43
0.0000001
 44
0.0000000001
 40
0.0
 40
0.0
 40
0.0
 40
0.0
 40
0.2667908787
 40
0.3974020359
 40
0.5252310821
 40
0.6497359722
 40
0.7705189806
 40
0.8873057497
 40
1.0
 40
1.0
 40
1.0
 40
1.0
 10
17.9487423793
 20
13.1360106128
 30
0.0
 10
17.9615527504
 20
13.1435274636
 30
0.0
 10
17.9798140728
 20
13.1562414931
 30
0.0
 10
18.0015725165
 20
13.175812514
 30
0.0
 10
18.0161745386
 20
13.1913863687
 30
0.0
 10
18.0289776221
 20
13.207780705
 30
0.0
 10
18.0398442855
 20
13.2247972861
 30
0.0
 10
18.0486401542
 20
13.2422387256
 30
0.0
 10
18.0531272644
 20
13.2542351376
 30
0.0
 10
18.0549739614
 20
13.2602311646
 30
0.0
  0
SPLINE
  5
3BF
100
AcDbEntity
  8
0
100
AcDbSpline
 62
7
  6
BYLAYER
 70
0
 71
3
 72
34
 73
30
 74
0
 42
0.0000001
 43
0.0000001
 44
0.0000000001
 40
0.0
 40
0.0
 40
0.0
 40
0.0
 40
0.0330537788
 40
0.067390253
 40
0.1028824652
 40
0.1393990765
 40
0.2149201106
 40
0.2927519785
 40
0.3716150162
 40
0.4110278664
 40
0.4502072957
 40
0.5272124941
 40
0.6013827869
 40
0.6370399104
 40
0.6715594022
 40
0.7048159894
 40
0.7366958342
 40
0.7670985259
 40
0.7959394677
 40
0.8231527967
 40
0.848695072
 40
0.8725499997
 40
0.8947343963
 40
0.9153058248
 40
0.9343719454
 40
0.9521009117
 40
0.9687306045
 40
0.9845719729
 40
1.0
 40
1.0
 40
1.0
 40
1.0
 10
18.0349515769
 20
12.9140170387
 30
0.0
 10
18.0320664505
 20
12.9046807665
 30
0.0
 10
18.0265770105
 20
12.8855226964
 30
0.0
 10
18.0192936111
 20
12.8559855705
 30
0.0
 10
18.0128304515
 20
12.8252111654
 30
0.0
 10
18.0052654603
 20
12.7822506415
 30
0.0
 10
17.9981284728
 20
12.7265367058
 30
0.0
 10
17.9933020762
 20
12.6580217543
 30
0.0
 10
17.9923973626
 20
12.6000207921
 30
0.0
 10
17.9935690265
 20
12.5534810788
 30
0.0
 10
17.9959904925
 20
12.5075395574
 30
0.0
 10
18.0012839399
 20
12.4514816486
 30
0.0
 10
18.0096988318
 20
12.3968532448
 30
0.0
 10
18.0182576501
 20
12.3550389844
 30
0.0
 10
18.0254188577
 20
12.3253039397
 30
0.0
 10
18.0333701914
 20
12.2969278623
 30
0.0
 10
18.0420729667
 20
12.270048614
 30
0.0
 10
18.0514845937
 20
12.2447966992
 30
0.0
 10
18.0615593731
 20
12.2212942485
 30
0.0
 10
18.0722487917
 20
12.1996544373
 30
0.0
 10
18.0835020921
 20
12.1799808686
 30
0.0
 10
18.0952669069
 20
12.1623671097
 30
0.0
 10
18.1074902607
 20
12.1468966234
 30
0.0
 10
18.1201195109
 20
12.1336432949
 30
0.0
 10
18.1331033718
 20
12.1226729709
 30
0.0
 10
18.146390544
 20
12.1140463192
 30
0.0
 10
18.1599288785
 20
12.1078219919
 30
0.0
 10
18.173647556
 20
12.1040565414
 30
0.0
 10
18.1829123774
 20
12.1032120313
 30
0.0
 10
18.1874734614
 20
12.1032121171
 30
0.0
  0
SPLINE
  5
3C0
100
AcDbEntity
  8
0
100
AcDbSpline
 62
7
  6
BYLAYER
 70
0
 71
3
 72
16
 73
12
 74
0
 42
0.0000001
 43
0.0000001
 44
0.0000000001
 40
0.0
 40
0.0
 40
0.0
 40
0.0
 40
0.1563853539
 40
0.3016173533
 40
0.4362701555
 40
0.4999376766
 40
0.5613515466
 40
0.6781282215
 40
0.7885391057
 40
0.8949307977
 40
1.0
 40
1.0
 40
1.0
 40
1.0
 10
17.7972256186
 20
12.8783253954
 30
0.0
 10
17.799622835
 20
12.881847486
 30
0.0
 10
17.8044939646
 20
12.8884780979
 30
0.0
 10
17.8123405044
 20
12.8974263013
 30
0.0
 10
17.8192004272
 20
12.9038239798
 30
0.0
 10
17.8247886683
 20
12.9081717847
 30
0.0
 10
17.8302367443
 20
12.9118838625
 30
0.0
 10
17.8371685465
 20
12.915655578
 30
0.0
 10
17.8457614958
 20
12.91873481
 30
0.0
 10
17.8544407479
 20
12.9202598738
 30
0.0
 10
17.8602381735
 20
12.9202261814
 30
0.0
 10
17.8630877874
 20
12.9199553392
 30
0.0
  0
SPLINE
  5
3C1
100
AcDbEntity
  8
02___PRT_ALL_AXES
100
AcDbSpline
 62
7
  6
BYLAYER
 70
0
 71
3
 72
15
 73
11
 74
0
 42
0.0000001
 43
0.0000001
 44
0.0000000001
 40
0.0
 40
0.0
 40
0.0
 40
0.0
 40
0.0858514607
 40
0.1774209735
 40
0.2792207128
 40
0.3941366111
 40
0.523634043
 40
0.6680989617
 40
0.827213888
 40
1.0
 40
1.0
 40
1.0
 40
1.0
 10
18.0354894151
 20
12.5047170035
 30
0.0
 10
18.0362782243
 20
12.5047168803
 30
0.0
 10
18.0379166173
 20
12.5049620225
 30
0.0
 10
18.0402779853
 20
12.5060289139
 30
0.0
 10
18.0425477842
 20
12.5077551939
 30
0.0
 10
18.0447092128
 20
12.5101063463
 30
0.0
 10
18.0467469959
 20
12.5130521375
 30
0.0
 10
18.0486416575
 20
12.5165585789
 30
0.0
 10
18.0503714353
 20
12.5205842446
 30
0.0
 10
18.0513630618
 20
12.5234710578
 30
0.0
 10
18.0518317879
 20
12.5249878561
 30
0.0
  0
SPLINE
  5
3C2
100
AcDbEntity
  8
0
100
AcDbSpline
 62
7
  6
BYLAYER
 70
0
 71
3
 72
18
 73
14
 74
0
 42
0.0000001
 43
0.0000001
 44
0.0000000001
 40
0.0
 40
0.0
 40
0.0
 40
0.0
 40
0.048725833
 40
0.1005780057
 40
0.1553716975
 40
0.2128823821
 40
0.2728492456
 40
0.3349831673
 40
0.4644608213
 40
0.598623236
 40
0.7345711614
 40
0.8693373438
 40
1.0
 40
1.0
 40
1.0
 40
1.0
 10
17.7817967559
 20
12.3549285717
 30
0.0
 10
17.7791198397
 20
12.3603835535
 30
0.0
 10
17.7739710171
 20
12.3718309343
 30
0.0
 10
17.7670370661
 20
12.389932634
 30
0.0
 10
17.7606880979
 20
12.4094030033
 30
0.0
 10
17.7549652971
 20
12.4301169496
 30
0.0
 10
17.7499051579
 20
12.4519428784
 30
0.0
 10
17.7440059076
 20
12.4827631396
 30
0.0
 10
17.7385626138
 20
12.5230588324
 30
0.0
 10
17.7351344987
 20
12.5728039782
 30
0.0
 10
17.7348154452
 20
12.623326942
 30
0.0
 10
17.7376130667
 20
12.6733337886
 30
0.0
 10
17.7415967774
 20
12.7062241245
 30
0.0
 10
17.7441383144
 20
12.7223191174
 30
0.0
  0
SPLINE
  5
3C3
100
AcDbEntity
  8
0
100
AcDbSpline
 62
7
  6
BYLAYER
 70
0
 71
3
 72
22
 73
18
 74
0
 42
0.0000001
 43
0.0000001
 44
0.0000000001
 40
0.0
 40
0.0
 40
0.0
 40
0.0
 40
0.1726685521
 40
0.2539491963
 40
0.3316732566
 40
0.40574049
 40
0.4760836661
 40
0.5426773284
 40
0.6055431254
 40
0.6647577429
 40
0.7204634672
 40
0.7728805611
 40
0.82231825
 40
0.8691856572
 40
0.9139978667
 40
0.9573703825
 40
1.0
 40
1.0
 40
1.0
 40
1.0
 10
18.0349515769
 20
12.9140170387
 30
0.0
 10
18.0393265421
 20
12.9281744316
 30
0.0
 10
18.0464127044
 20
12.948808975
 30
0.0
 10
18.0571947553
 20
12.9751574462
 30
0.0
 10
18.0655293697
 20
12.9933469534
 30
0.0
 10
18.0742483367
 20
13.0103071199
 30
0.0
 10
18.0833251508
 20
13.0259853608
 30
0.0
 10
18.092732062
 20
13.0403328563
 30
0.0
 10
18.1024406752
 20
13.0533053714
 30
0.0
 10
18.1124224476
 20
13.0648626789
 30
0.0
 10
18.1226489234
 20
13.0749683882
 30
0.0
 10
18.1330913449
 20
13.0835899999
 30
0.0
 10
18.1437211536
 20
13.0906977413
 30
0.0
 10
18.1545085729
 20
13.0962638536
 30
0.0
 10
18.1654220905
 20
13.1002631654
 30
0.0
 10
18.1764219656
 20
13.1026735335
 30
0.0
 10
18.1838131963
 20
13.1032119232
 30
0.0
 10
18.187471559
 20
13.1032119921
 30
0.0
  0
SPLINE
  5
3C4
100
AcDbEntity
  8
02___PRT_ALL_AXES
100
AcDbSpline
 62
7
  6
BYLAYER
 70
0
 71
3
 72
25
 73
21
 74
0
 42
0.0000001
 43
0.0000001
 44
0.0000000001
 40
0.0
 40
0.0
 40
0.0
 40
0.0
 40
0.0155034836
 40
0.0315088859
 40
0.0484627513
 40
0.0667217116
 40
0.1080391413
 40
0.1566409263
 40
0.2126384539
 40
0.2755247381
 40
0.344383399
 40
0.4180159583
 40
0.4950291248
 40
0.5739033578
 40
0.6530528788
 40
0.7308823758
 40
0.8058427414
 40
0.876490919
 40
0.9415505141
 40
1.0
 40
1.0
 40
1.0
 40
1.0
 10
18.169977567
 20
12.9399208244
 30
0.0
 10
18.1705165962
 20
12.939920739
 30
0.0
 10
18.1716150261
 20
12.9400313431
 30
0.0
 10
18.1732361697
 20
12.9405234162
 30
0.0
 10
18.1748306112
 20
12.941334737
 30
0.0
 10
18.1769966813
 20
12.942894864
 30
0.0
 10
18.1795721141
 20
12.9456841416
 30
0.0
 10
18.1822910432
 20
12.949987724
 30
0.0
 10
18.1847216902
 20
12.9552948089
 30
0.0
 10
18.1868100845
 20
12.9614889025
 30
0.0
 10
18.1885092925
 20
12.9684319864
 30
0.0
 10
18.1897783892
 20
12.9759635949
 30
0.0
 10
18.1905867887
 20
12.9839078758
 30
0.0
 10
18.190914813
 20
12.9920780584
 30
0.0
 10
18.1907544978
 20
13.0002815838
 30
0.0
 10
18.1901097141
 20
13.0083250681
 30
0.0
 10
18.1889962235
 20
13.0160190925
 30
0.0
 10
18.187440786
 20
13.0231838495
 30
0.0
 10
18.1854814153
 20
13.0296516327
 30
0.0
 10
18.1838415152
 20
13.0336317922
 30
0.0
 10
18.18294625
 20
13.0354561508
 30
0.0
  0
SPLINE
  5
3C5
100
AcDbEntity
  8
02___PRT_ALL_AXES
100
AcDbSpline
 62
7
  6
BYLAYER
 70
0
 71
3
 72
20
 73
16
 74
0
 42
0.0000001
 43
0.0000001
 44
0.0000000001
 40
0.0
 40
0.0
 40
0.0
 40
0.0
 40
0.0507340861
 40
0.1026058865
 40
0.1565727167
 40
0.2132905237
 40
0.3355486832
 40
0.4011150499
 40
0.4689001405
 40
0.6080360695
 40
0.6779865412
 40
0.7469988219
 40
0.8143002031
 40
0.879238256
 40
1.0
 40
1.0
 40
1.0
 40
1.0
 10
17.886585054
 20
14.0943476383
 30
0.0
 10
17.8856806526
 20
14.0961901608
 30
0.0
 10
17.8834283561
 20
14.0997242821
 30
0.0
 10
17.8789200349
 20
14.1042371581
 30
0.0
 10
17.8733940291
 20
14.1078808727
 30
0.0
 10
17.8646679542
 20
14.1115529452
 30
0.0
 10
17.8547011915
 20
14.1130091162
 30
0.0
 10
17.8443586595
 20
14.1124591783
 30
0.0
 10
17.8334851878
 20
14.1104953036
 30
0.0
 10
17.822881084
 20
14.1065322736
 30
0.0
 10
17.813142681
 20
14.1008618623
 30
0.0
 10
17.8064489852
 20
14.095846117
 30
0.0
 10
17.8005511099
 20
14.0901979811
 30
0.0
 10
17.794111272
 20
14.0822262107
 30
0.0
 10
17.7905929946
 20
14.0754133384
 30
0.0
 10
17.7891505385
 20
14.0707455488
 30
0.0
  0
LINE
  5
3C6
100
AcDbEntity
  8
0
100
AcDbLine
 62
7
  6
BYLAYER
 10
17.8988789165
 20
12.7130577106
 11
17.7441383144
 21
12.7223191174
  0
SPLINE
  5
3C7
100
AcDbEntity
  8
02___PRT_ALL_AXES
100
AcDbSpline
 62
7
  6
BYLAYER
 70
0
 71
3
 72
14
 73
10
 74
0
 42
0.0000001
 43
0.0000001
 44
0.0000000001
 40
0.0
 40
0.0
 40
0.0
 40
0.0
 40
0.1128399572
 40
0.2271853011
 40
0.3443969944
 40
0.4655774191
 40
0.5915072796
 40
0.722607523
 40
1.0
 40
1.0
 40
1.0
 40
1.0
 10
17.4446393054
 20
14.0943476394
 30
0.0
 10
17.4439477641
 20
14.0957565104
 30
0.0
 10
17.4423114148
 20
14.0984803094
 30
0.0
 10
17.439181507
 20
14.1021334909
 30
0.0
 10
17.435419266
 20
14.1053138073
 30
0.0
 10
17.431085699
 20
14.1079740148
 30
0.0
 10
17.4262462502
 20
14.1100780034
 30
0.0
 10
17.4190896152
 20
14.1121418528
 30
0.0
 10
17.4133733105
 20
14.1127094904
 30
0.0
 10
17.4095151798
 20
14.1127094904
 30
0.0
  0
SPLINE
  5
3C8
100
AcDbEntity
  8
02___PRT_ALL_AXES
100
AcDbSpline
 62
7
  6
BYLAYER
 70
0
 71
3
 72
11
 73
7
 74
0
 42
0.0000001
 43
0.0000001
 44
0.0000000001
 40
0.0
 40
0.0
 40
0.0
 40
0.0
 40
0.2644280716
 40
0.5170829352
 40
0.7609159252
 40
1.0
 40
1.0
 40
1.0
 40
1.0
 10
17.7891505385
 20
14.0707455488
 30
0.0
 10
17.7885212562
 20
14.0687091903
 30
0.0
 10
17.7875995162
 20
14.0646210678
 30
0.0
 10
17.7873224738
 20
14.0584598709
 30
0.0
 10
17.788198668
 20
14.0525579871
 30
0.0
 10
17.7895519943
 20
14.0488733888
 30
0.0
 10
17.7904011295
 20
14.0471434593
 30
0.0
  0
SPLINE
  5
3C9
100
AcDbEntity
  8
0
100
AcDbSpline
 62
7
  6
BYLAYER
 70
0
 71
3
 72
11
 73
7
 74
0
 42
0.0000001
 43
0.0000001
 44
0.0000000001
 40
0.0
 40
0.0
 40
0.0
 40
0.0
 40
0.2463632301
 40
0.4951042165
 40
0.7463297386
 40
1.0
 40
1.0
 40
1.0
 40
1.0
 10
17.7743680316
 20
12.8782832468
 30
0.0
 10
17.771552648
 20
12.8665867291
 30
0.0
 10
17.7655379637
 20
12.8431647824
 30
0.0
 10
17.7553398836
 20
12.8081688393
 30
0.0
 10
17.7438999633
 20
12.7731834962
 30
0.0
 10
17.7355152186
 20
12.7499931737
 30
0.0
 10
17.7311419025
 20
12.7384034415
 30
0.0
  0
LINE
  5
3CA
100
AcDbEntity
  8
0
100
AcDbLine
 62
7
  6
BYLAYER
 10
17.7311419025
 20
12.7384034415
 11
17.7441383144
 21
12.7223191174
  0
SPLINE
  5
3CB
100
AcDbEntity
  8
0
100
AcDbSpline
 62
7
  6
BYLAYER
 70
0
 71
3
 72
83
 73
79
 74
0
 42
0.0000001
 43
0.0000001
 44
0.0000000001
 40
0.0
 40
0.0
 40
0.0
 40
0.0
 40
0.0243326439
 40
0.0501449735
 40
0.0773694985
 40
0.1059208259
 40
0.1356978878
 40
0.1665878038
 40
0.1984680038
 40
0.2312086239
 40
0.2646745809
 40
0.29872755
 40
0.3332274922
 40
0.3680339968
 40
0.4030082715
 40
0.4380146461
 40
0.4729218338
 40
0.5076067214
 40
0.5419562035
 40
0.5589735301
 40
0.5758706681
 40
0.5926380111
 40
0.6092677412
 40
0.6257543031
 40
0.6420950745
 40
0.658291593
 40
0.6663379009
 40
0.6743517853
 40
0.6823358887
 40
0.6902939672
 40
0.6982313432
 40
0.706155639
 40
0.7140780088
 40
0.7180434639
 40
0.7220154705
 40
0.7259978122
 40
0.7299954795
 40
0.7340152407
 40
0.7380665823
 40
0.7421633356
 40
0.746326298
 40
0.7484419834
 40
0.7505859542
 40
0.7527591343
 40
0.7549443409
 40
0.7560193121
 40
0.7570497628
 40
0.757997273
 40
0.7588318057
 40
0.7595572224
 40
0.7602063106
 40
0.7613992767
 40
0.7625767737
 40
0.7637840384
 40
0.7650289879
 40
0.7663099165
 40
0.767623143
 40
0.7689650155
 40
0.7717220753
 40
0.7745619731
 40
0.7774710104
 40
0.7834598366
 40
0.7896382318
 40
0.795975604
 40
0.8024519672
 40
0.8090532608
 40
0.8157689574
 40
0.8225908473
 40
0.8295123382
 40
0.8365279586
 40
0.8436330416
 40
0.8580954574
 40
0.8728722045
 40
0.8879399343
 40
0.9032780786
 40
0.9346904575
 40
0.9669733524
 40
1.0
 40
1.0
 40
1.0
 40
1.0
 10
17.6276222125
 20
12.0847388063
 30
0.0
 10
17.6226655715
 20
12.0938536232
 30
0.0
 10
17.6130856762
 20
12.1129873419
 30
0.0
 10
17.6000356703
 20
12.1433028605
 30
0.0
 10
17.5879314021
 20
12.1759330779
 30
0.0
 10
17.5768293156
 20
12.2106942825
 30
0.0
 10
17.5667784111
 20
12.247395482
 30
0.0
 10
17.5578210876
 20
12.2858364402
 30
0.0
 10
17.5499924715
 20
12.3258105368
 30
0.0
 10
17.5433202586
 20
12.3671061114
 30
0.0
 10
17.5378245373
 20
12.4095084238
 30
0.0
 10
17.5335176422
 20
12.4528013739
 30
0.0
 10
17.5304040005
 20
12.4967691217
 30
0.0
 10
17.5284800542
 20
12.5411978555
 30
0.0
 10
17.5277340058
 20
12.5858776693
 30
0.0
 10
17.5281455115
 20
12.6306045051
 30
0.0
 10
17.5296851239
 20
12.6751830798
 30
0.0
 10
17.532313493
 20
12.7194298014
 30
0.0
 10
17.5353782988
 20
12.755997589
 30
0.0
 10
17.5383240289
 20
12.7849562213
 30
0.0
 10
17.540759558
 20
12.8064296043
 30
0.0
 10
17.5434163668
 20
12.8277101264
 30
0.0
 10
17.546280577
 20
12.8487870311
 30
0.0
 10
17.5493354456
 20
12.8696532836
 30
0.0
 10
17.5525606261
 20
12.8903068867
 30
0.0
 10
17.5553748895
 20
12.9073814122
 30
0.0
 10
17.5576807154
 20
12.9209409297
 30
0.0
 10
17.5594276251
 20
12.9310434303
 30
0.0
 10
17.5611887951
 20
12.9411052563
 30
0.0
 10
17.5629553586
 20
12.9511330089
 30
0.0
 10
17.5647158792
 20
12.9611359338
 30
0.0
 10
17.5664548684
 20
12.9711271755
 30
0.0
 10
17.5678676185
 20
12.9794560982
 30
0.0
 10
17.568958542
 20
12.9861301324
 30
0.0
 10
17.5697517318
 20
12.9911504567
 30
0.0
 10
17.5705119594
 20
12.9961897904
 30
0.0
 10
17.57122878
 20
13.0012560918
 30
0.0
 10
17.5718874334
 20
13.0063600113
 30
0.0
 10
17.5724662158
 20
13.0115163249
 30
0.0
 10
17.5729298467
 20
13.0167457242
 30
0.0
 10
17.573169264
 20
13.0211650067
 30
0.0
 10
17.5732120671
 20
13.0247566949
 30
0.0
 10
17.5731383753
 20
13.027499737
 30
0.0
 10
17.5729104099
 20
13.0302643692
 30
0.0
 10
17.5725251041
 20
13.0325549364
 30
0.0
 10
17.5720209247
 20
13.0343160024
 30
0.0
 10
17.5715327252
 20
13.0355262092
 30
0.0
 10
17.5709270324
 20
13.0365677351
 30
0.0
 10
17.5702163818
 20
13.0373779159
 30
0.0
 10
17.5694391179
 20
13.037926717
 30
0.0
 10
17.5684080631
 20
13.0383243751
 30
0.0
 10
17.5670877917
 20
13.0383688994
 30
0.0
 10
17.5656045248
 20
13.0379655931
 30
0.0
 10
17.5642021807
 20
13.0372982828
 30
0.0
 10
17.5628551582
 20
13.0364453378
 30
0.0
 10
17.5615499208
 20
13.0354550557
 30
0.0
 10
17.560279022
 20
13.0343575934
 30
0.0
 10
17.5586084492
 20
13.0327644744
 30
0.0
 10
17.5565906919
 20
13.030597182
 30
0.0
 10
17.5542671063
 20
13.0278107795
 30
0.0
 10
17.5512239465
 20
13.023835875
 30
0.0
 10
17.5475712495
 20
13.0185414883
 30
0.0
 10
17.543390604
 20
13.0118476464
 30
0.0
 10
17.5393468596
 20
13.0048296734
 30
0.0
 10
17.5354234728
 20
12.9975388196
 30
0.0
 10
17.5316089869
 20
12.9900093427
 30
0.0
 10
17.5278948283
 20
12.9822663166
 30
0.0
 10
17.5242746065
 20
12.9743287283
 30
0.0
 10
17.5207435421
 20
12.966211507
 30
0.0
 10
17.5172979159
 20
12.9579267622
 30
0.0
 10
17.5127874078
 20
12.9466039615
 30
0.0
 10
17.5073585335
 20
12.9320867357
 30
0.0
 10
17.5011880716
 20
12.9142286757
 30
0.0
 10
17.4953161263
 20
12.895877886
 30
0.0
 10
17.4878190757
 20
12.8706057246
 30
0.0
 10
17.4792074985
 20
12.8380157577
 30
0.0
 10
17.4700948479
 20
12.7977857147
 30
0.0
 10
17.4648328043
 20
12.7704340017
 30
0.0
 10
17.4623816161
 20
12.7565665088
 30
0.0
  0
SPLINE
  5
3CC
100
AcDbEntity
  8
0
100
AcDbSpline
 62
7
  6
BYLAYER
 70
0
 71
3
 72
34
 73
30
 74
0
 42
0.0000001
 43
0.0000001
 44
0.0000000001
 40
0.0
 40
0.0
 40
0.0
 40
0.0
 40
0.1445744203
 40
0.2855639185
 40
0.3544072172
 40
0.421981955
 40
0.488161016
 40
0.5528131615
 40
0.6158006502
 40
0.6769747356
 40
0.7068310142
 40
0.7361702195
 40
0.7649671026
 40
0.7931932452
 40
0.8208159295
 40
0.8477965548
 40
0.8740886054
 40
0.8996360769
 40
0.9121133558
 40
0.9243842731
 40
0.9364491133
 40
0.9483247153
 40
0.9600759995
 40
0.9659679493
 40
0.9719395541
 40
0.9781008366
 40
0.9846459094
 40
0.9918633274
 40
1.0
 40
1.0
 40
1.0
 40
1.0
 10
17.4623816161
 20
12.7565665088
 30
0.0
 10
17.4622773586
 20
12.7778738948
 30
0.0
 10
17.4625337979
 20
12.8199638504
 30
0.0
 10
17.4639291446
 20
12.8721817789
 30
0.0
 10
17.4655939235
 20
12.9130331393
 30
0.0
 10
17.4670631394
 20
12.9428564414
 30
0.0
 10
17.4687209286
 20
12.9720510643
 30
0.0
 10
17.4705144738
 20
13.000560185
 30
0.0
 10
17.4723756903
 20
13.0283256058
 30
0.0
 10
17.4739191464
 20
13.0509725106
 30
0.0
 10
17.4750777847
 20
13.0686749398
 30
0.0
 10
17.4758798178
 20
13.0816186318
 30
0.0
 10
17.4765958955
 20
13.0943267908
 30
0.0
 10
17.4771923518
 20
13.1067879839
 30
0.0
 10
17.4776245842
 20
13.1189882917
 30
0.0
 10
17.4778316497
 20
13.1309100276
 30
0.0
 10
17.4777244063
 20
13.1425277305
 30
0.0
 10
17.4772585815
 20
13.1520003131
 30
0.0
 10
17.4765332805
 20
13.1593790796
 30
0.0
 10
17.4757726583
 20
13.1647531276
 30
0.0
 10
17.4747254054
 20
13.1699904922
 30
0.0
 10
17.473289966
 20
13.1750576504
 30
0.0
 10
17.4716264519
 20
13.1790966095
 30
0.0
 10
17.4698789585
 20
13.1821131206
 30
0.0
 10
17.4682861095
 20
13.184248582
 30
0.0
 10
17.4663215934
 20
13.1861952207
 30
0.0
 10
17.4638621751
 20
13.1878402243
 30
0.0
 10
17.4608075329
 20
13.1889767194
 30
0.0
 10
17.4585313905
 20
13.1892190915
 30
0.0
 10
17.4573321929
 20
13.1892190915
 30
0.0
  0
SPLINE
  5
3CD
100
AcDbEntity
  8
02___PRT_ALL_AXES
100
AcDbSpline
 62
7
  6
BYLAYER
 70
0
 71
3
 72
14
 73
10
 74
0
 42
0.0000001
 43
0.0000001
 44
0.0000000001
 40
0.0
 40
0.0
 40
0.0
 40
0.0
 40
0.3152667198
 40
0.45425357
 40
0.5812298155
 40
0.6972333718
 40
0.8039363078
 40
0.9037966714
 40
1.0
 40
1.0
 40
1.0
 40
1.0
 10
18.2179344479
 20
12.2548958416
 30
0.0
 10
18.2170888216
 20
12.2566190468
 30
0.0
 10
18.2157143276
 20
12.2590377388
 30
0.0
 10
18.2135414322
 20
12.2618376257
 30
0.0
 10
18.2119165815
 20
12.2635095738
 30
0.0
 10
18.2102374958
 20
12.2648306653
 30
0.0
 10
18.2085116363
 20
12.2657887301
 30
0.0
 10
18.2067506019
 20
12.2663717442
 30
0.0
 10
18.2055531901
 20
12.2665031921
 30
0.0
 10
18.2049674534
 20
12.2665032848
 30
0.0
  0
SPLINE
  5
3CE
100
AcDbEntity
  8
02___PRT_ALL_AXES
100
AcDbSpline
 62
7
  6
BYLAYER
 70
0
 71
3
 72
24
 73
20
 74
0
 42
0.0000001
 43
0.0000001
 44
0.0000000001
 40
0.0
 40
0.0
 40
0.0
 40
0.0
 40
0.0673958727
 40
0.1394151215
 40
0.2149562047
 40
0.2928090253
 40
0.3716932701
 40
0.4502994007
 40
0.5273256526
 40
0.6015164369
 40
0.6717022604
 40
0.7368442277
 40
0.7960876979
 40
0.8488343889
 40
0.8948506693
 40
0.9344421834
 40
0.9687216521
 40
0.9845676783
 40
1.0
 40
1.0
 40
1.0
 40
1.0
 10
18.3557962896
 20
12.614835185
 30
0.0
 10
18.3564263967
 20
12.6168742123
 30
0.0
 10
18.3575538419
 20
12.6211476695
 30
0.0
 10
18.3588339079
 20
12.6278374964
 30
0.0
 10
18.3597415922
 20
12.6349218144
 30
0.0
 10
18.3602587189
 20
12.6422627447
 30
0.0
 10
18.3603749839
 20
12.6497179177
 30
0.0
 10
18.3600880695
 20
12.6571423075
 30
0.0
 10
18.3594036981
 20
12.6643916101
 30
0.0
 10
18.3583355241
 20
12.6713251573
 30
0.0
 10
18.3569047733
 20
12.6778089533
 30
0.0
 10
18.3551397419
 20
12.6837186886
 30
0.0
 10
18.3530744671
 20
12.6889427551
 30
0.0
 10
18.3507476555
 20
12.6933853866
 30
0.0
 10
18.3481956836
 20
12.6969687059
 30
0.0
 10
18.3454534493
 20
12.699631794
 30
0.0
 10
18.3429478985
 20
12.7010646194
 30
0.0
 10
18.3409369596
 20
12.7016164273
 30
0.0
 10
18.3399442872
 20
12.7017070294
 30
0.0
 10
18.3394556053
 20
12.7017071057
 30
0.0
  0
SPLINE
  5
3CF
100
AcDbEntity
  8
0
100
AcDbSpline
 62
7
  6
BYLAYER
 70
0
 71
3
 72
11
 73
7
 74
0
 42
0.0000001
 43
0.0000001
 44
0.0000000001
 40
0.0
 40
0.0
 40
0.0
 40
0.0
 40
0.2305074943
 40
0.4743624102
 40
0.7310556412
 40
1.0
 40
1.0
 40
1.0
 40
1.0
 10
17.9487423793
 20
13.1360106128
 30
0.0
 10
17.9527343751
 20
13.1286385211
 30
0.0
 10
17.9605228887
 20
13.1132337815
 30
0.0
 10
17.971358524
 20
13.0889439453
 30
0.0
 10
17.9816411841
 20
13.0629065839
 30
0.0
 10
17.9879602135
 20
13.0448581914
 30
0.0
 10
17.9910295576
 20
13.035570747
 30
0.0
  0
SPLINE
  5
3D0
100
AcDbEntity
  8
0
100
AcDbSpline
 62
7
  6
BYLAYER
 70
0
 71
3
 72
35
 73
31
 74
0
 42
0.0000001
 43
0.0000001
 44
0.0000000001
 40
0.0
 40
0.0
 40
0.0
 40
0.0
 40
0.0897222441
 40
0.1730032626
 40
0.212150316
 40
0.2496067856
 40
0.2853706891
 40
0.3194553606
 40
0.3518909232
 40
0.3827267083
 40
0.4120344486
 40
0.4399104423
 40
0.4918384019
 40
0.5162851852
 40
0.5399791809
 40
0.5631621771
 40
0.586095445
 40
0.6090498605
 40
0.6322943804
 40
0.6560847991
 40
0.6806546705
 40
0.7062093485
 40
0.7329229488
 40
0.760938642
 40
0.7903698507
 40
0.8213032613
 40
0.8538017929
 40
0.887906147
 40
0.9236405526
 40
1.0
 40
1.0
 40
1.0
 40
1.0
 10
17.9880273863
 20
12.175350852
 30
0.0
 10
17.9828352563
 20
12.1599876199
 30
0.0
 10
17.9719814645
 20
12.1306384075
 30
0.0
 10
17.9562875877
 20
12.0956113281
 30
0.0
 10
17.9429061892
 20
12.0699892792
 30
0.0
 10
17.9327371177
 20
12.0524005989
 30
0.0
 10
17.9222494352
 20
12.0360766623
 30
0.0
 10
17.9114649566
 20
12.0210497669
 30
0.0
 10
17.9004055936
 20
12.0073492768
 30
0.0
 10
17.8890943424
 20
11.9950026781
 30
0.0
 10
17.8775504562
 20
11.9840320342
 30
0.0
 10
17.8622516748
 20
11.9715694969
 30
0.0
 10
17.8461769889
 20
11.9614922247
 30
0.0
 10
17.8295339392
 20
11.9543367978
 30
0.0
 10
17.8171853177
 20
11.9505417009
 30
0.0
 10
17.8047533779
 20
11.9482245393
 30
0.0
 10
17.7922676776
 20
11.9473912921
 30
0.0
 10
17.7797602507
 20
11.9480428569
 30
0.0
 10
17.7672626673
 20
11.9501749022
 30
0.0
 10
17.7548049593
 20
11.9537772619
 30
0.0
 10
17.7424147801
 20
11.9588360903
 30
0.0
 10
17.7301177057
 20
11.9653349907
 30
0.0
 10
17.717937299
 20
11.9732550287
 30
0.0
 10
17.7058964888
 20
11.9825761978
 30
0.0
 10
17.6940174072
 20
11.9932762877
 30
0.0
 10
17.6823219535
 20
12.0053312964
 30
0.0
 10
17.6708324702
 20
12.0187150525
 30
0.0
 10
17.6595698241
 20
12.0333990024
 30
0.0
 10
17.6445534221
 20
12.0551521184
 30
0.0
 10
17.6342156822
 20
12.0726140089
 30
0.0
 10
17.6276222125
 20
12.0847388063
 30
0.0
  0
SPLINE
  5
3D1
100
AcDbEntity
  8
0
100
AcDbSpline
 62
7
  6
BYLAYER
 70
0
 71
3
 72
17
 73
13
 74
0
 42
0.0000001
 43
0.0000001
 44
0.0000000001
 40
0.0
 40
0.0
 40
0.0
 40
0.0
 40
0.0484798912
 40
0.097046402
 40
0.1462235031
 40
0.1965114425
 40
0.3020863448
 40
0.416944598
 40
0.5431974207
 40
0.6821287929
 40
0.8343619716
 40
1.0
 40
1.0
 40
1.0
 40
1.0
 10
17.8630877873
 20
12.2864687778
 30
0.0
 10
17.861274912
 20
12.2862964826
 30
0.0
 10
17.8576229798
 20
12.286156025
 30
0.0
 10
17.8521349657
 20
12.2865722764
 30
0.0
 10
17.8466610473
 20
12.2876142885
 30
0.0
 10
17.8392826776
 20
12.2898681287
 30
0.0
 10
17.8300779857
 20
12.294352327
 30
0.0
 10
17.8195147933
 20
12.3020595198
 30
0.0
 10
17.8093014452
 20
12.3120936592
 30
0.0
 10
17.799499148
 20
12.3243709595
 30
0.0
 10
17.790168265
 20
12.3387982383
 30
0.0
 10
17.7845377429
 20
12.3493430276
 30
0.0
 10
17.7817967559
 20
12.3549285717
 30
0.0
  0
SPLINE
  5
3D2
100
AcDbEntity
  8
0
100
AcDbSpline
 62
7
  6
BYLAYER
 70
0
 71
3
 72
30
 73
26
 74
0
 42
0.0000001
 43
0.0000001
 44
0.0000000001
 40
0.0
 40
0.0
 40
0.0
 40
0.0
 40
0.0249892908
 40
0.0511577665
 40
0.0784599096
 40
0.106844407
 40
0.1362503735
 40
0.1666107137
 40
0.2298903066
 40
0.2960457682
 40
0.3643695775
 40
0.4341093806
 40
0.5044846649
 40
0.5747024904
 40
0.6439729825
 40
0.7115248848
 40
0.7766215471
 40
0.8080357437
 40
0.8385846353
 40
0.8681938453
 40
0.8967948342
 40
0.9243258401
 40
0.9507321048
 40
0.9759692745
 40
1.0
 40
1.0
 40
1.0
 40
1.0
 10
17.4459070776
 20
11.9066794176
 30
0.0
 10
17.4410731547
 20
11.9165299168
 30
0.0
 10
17.4316587495
 20
11.9369348041
 30
0.0
 10
17.4185621713
 20
11.9688092
 30
0.0
 10
17.4062010311
 20
12.0025678904
 30
0.0
 10
17.394616544
 20
12.0380980113
 30
0.0
 10
17.3838467762
 20
12.0752831903
 30
0.0
 10
17.3704372935
 20
12.1276288891
 30
0.0
 10
17.3560508288
 20
12.1963444679
 30
0.0
 10
17.3427486704
 20
12.2821901673
 30
0.0
 10
17.3333572924
 20
12.3714027592
 30
0.0
 10
17.3280027104
 20
12.4628019374
 30
0.0
 10
17.3267570227
 20
12.5551804493
 30
0.0
 10
17.3296371416
 20
12.6473163072
 30
0.0
 10
17.3366040843
 20
12.7379919501
 30
0.0
 10
17.3475643807
 20
12.8260070771
 30
0.0
 10
17.3600461948
 20
12.8969938221
 30
0.0
 10
17.3719847663
 20
12.9514993227
 30
0.0
 10
17.3817234438
 20
12.9905173221
 30
0.0
 10
17.392319742
 20
13.0280295229
 30
0.0
 10
17.4037387093
 20
13.0639121333
 30
0.0
 10
17.4159423715
 20
13.0980463066
 30
0.0
 10
17.4288904264
 20
13.1303202747
 30
0.0
 10
17.4425398322
 20
13.1606262108
 30
0.0
 10
17.4523207982
 20
13.1799333263
 30
0.0
 10
17.4573321929
 20
13.1892190915
 30
0.0
  0
SPLINE
  5
3D3
100
AcDbEntity
  8
02___PRT_ALL_AXES
100
AcDbSpline
 62
7
  6
BYLAYER
 70
0
 71
3
 72
20
 73
16
 74
0
 42
0.0000001
 43
0.0000001
 44
0.0000000001
 40
0.0
 40
0.0
 40
0.0
 40
0.0
 40
0.0507340861
 40
0.1026058865
 40
0.1565727167
 40
0.2132905237
 40
0.3355486832
 40
0.4011150499
 40
0.4689001405
 40
0.6080360695
 40
0.6779865412
 40
0.7469988219
 40
0.8143002031
 40
0.879238256
 40
1.0
 40
1.0
 40
1.0
 40
1.0
 10
17.3284904449
 20
13.7184897946
 30
0.0
 10
17.3275860434
 20
13.7203323171
 30
0.0
 10
17.3253337469
 20
13.7238664384
 30
0.0
 10
17.3208254257
 20
13.7283793144
 30
0.0
 10
17.3152994199
 20
13.732023029
 30
0.0
 10
17.306573345
 20
13.7356951015
 30
0.0
 10
17.2966065823
 20
13.7371512724
 30
0.0
 10
17.2862640503
 20
13.7366013346
 30
0.0
 10
17.2753905786
 20
13.7346374599
 30
0.0
 10
17.2647864748
 20
13.7306744299
 30
0.0
 10
17.2550480718
 20
13.7250040186
 30
0.0
 10
17.248354376
 20
13.7199882732
 30
0.0
 10
17.2424565007
 20
13.7143401374
 30
0.0
 10
17.2360166629
 20
13.7063683669
 30
0.0
 10
17.2324983854
 20
13.6995554947
 30
0.0
 10
17.2310559294
 20
13.6948877051
 30
0.0
  0
SPLINE
  5
3D4
100
AcDbEntity
  8
02___PRT_ALL_AXES
100
AcDbSpline
 62
7
  6
BYLAYER
 70
0
 71
3
 72
18
 73
14
 74
0
 42
0.0000001
 43
0.0000001
 44
0.0000000001
 40
0.0
 40
0.0
 40
0.0
 40
0.0
 40
0.1325554487
 40
0.2707008724
 40
0.4098378702
 40
0.5451767032
 40
0.6726740656
 40
0.7327918435
 40
0.7902860523
 40
0.8452987116
 40
0.8981849504
 40
0.9495076359
 40
1.0
 40
1.0
 40
1.0
 40
1.0
 10
17.7353120721
 20
13.7368516467
 30
0.0
 10
17.7307226166
 20
13.7368516467
 30
0.0
 10
17.7213283671
 20
13.7357431143
 30
0.0
 10
17.7077800069
 20
13.7312482903
 30
0.0
 10
17.6952534221
 20
13.7241896712
 30
0.0
 10
17.6846291911
 20
13.7150579569
 30
0.0
 10
17.6778346254
 20
13.7060349231
 30
0.0
 10
17.6741036819
 20
13.6983878336
 30
0.0
 10
17.6722380344
 20
13.6926875259
 30
0.0
 10
17.6712903905
 20
13.6870162561
 30
0.0
 10
17.6712843445
 20
13.6814762763
 30
0.0
 10
17.6722256827
 20
13.6761748541
 30
0.0
 10
17.6734819649
 20
13.6728549485
 30
0.0
 10
17.674252269
 20
13.6712856146
 30
0.0
  0
SPLINE
  5
3D5
100
AcDbEntity
  8
02___PRT_ALL_AXES
100
AcDbSpline
 62
7
  6
BYLAYER
 70
0
 71
3
 72
11
 73
7
 74
0
 42
0.0000001
 43
0.0000001
 44
0.0000000001
 40
0.0
 40
0.0
 40
0.0
 40
0.0
 40
0.2513311011
 40
0.5081703316
 40
0.7606940674
 40
1.0
 40
1.0
 40
1.0
 40
1.0
 10
17.9097580218
 20
12.7995557477
 30
0.0
 10
17.9066901328
 20
12.7991709335
 30
0.0
 10
17.9005608013
 20
12.7976788656
 30
0.0
 10
17.8920542173
 20
12.7936328225
 30
0.0
 10
17.8846561101
 20
12.7880409176
 30
0.0
 10
17.8806950673
 20
12.7833782937
 30
0.0
 10
17.8790984326
 20
12.7809048646
 30
0.0
  0
SPLINE
  5
3D6
100
AcDbEntity
  8
02___PRT_ALL_AXES
100
AcDbSpline
 62
7
  6
BYLAYER
 70
0
 71
3
 72
11
 73
7
 74
0
 42
0.0000001
 43
0.0000001
 44
0.0000000001
 40
0.0
 40
0.0
 40
0.0
 40
0.0
 40
0.2644280716
 40
0.5170829352
 40
0.7609159252
 40
1.0
 40
1.0
 40
1.0
 40
1.0
 10
17.2310559294
 20
13.6948877051
 30
0.0
 10
17.230426647
 20
13.6928513466
 30
0.0
 10
17.229504907
 20
13.6887632241
 30
0.0
 10
17.2292278646
 20
13.6826020272
 30
0.0
 10
17.2301040588
 20
13.6767001433
 30
0.0
 10
17.2314573851
 20
13.6730155451
 30
0.0
 10
17.2323065204
 20
13.6712856156
 30
0.0
  0
SPLINE
  5
3D7
100
AcDbEntity
  8
02___PRT_ALL_AXES
100
AcDbSpline
 62
7
  6
BYLAYER
 70
0
 71
3
 72
14
 73
10
 74
0
 42
0.0000001
 43
0.0000001
 44
0.0000000001
 40
0.0
 40
0.0
 40
0.0
 40
0.0
 40
0.3152667198
 40
0.45425357
 40
0.5812298155
 40
0.6972333718
 40
0.8039363078
 40
0.9037966714
 40
1.0
 40
1.0
 40
1.0
 40
1.0
 10
18.18294625
 20
13.0354561508
 30
0.0
 10
18.1821006237
 20
13.037179356
 30
0.0
 10
18.1807261298
 20
13.039598048
 30
0.0
 10
18.1785532343
 20
13.0423979349
 30
0.0
 10
18.1769283836
 20
13.0440698829
 30
0.0
 10
18.1752492979
 20
13.0453909745
 30
0.0
 10
18.1735234385
 20
13.0463490393
 30
0.0
 10
18.1717624041
 20
13.0469320534
 30
0.0
 10
18.1705649922
 20
13.0470635012
 30
0.0
 10
18.1699792555
 20
13.047063594
 30
0.0
  0
SPLINE
  5
3D8
100
AcDbEntity
  8
02___PRT_ALL_AXES
100
AcDbSpline
 62
7
  6
BYLAYER
 70
0
 71
3
 72
18
 73
14
 74
0
 42
0.0000001
 43
0.0000001
 44
0.0000000001
 40
0.0
 40
0.0
 40
0.0
 40
0.0
 40
0.1325554487
 40
0.2707008724
 40
0.4098378702
 40
0.5451767032
 40
0.6726740656
 40
0.7327918435
 40
0.7902860523
 40
0.8452987116
 40
0.8981849504
 40
0.9495076359
 40
1.0
 40
1.0
 40
1.0
 40
1.0
 10
17.4095151798
 20
14.1127094904
 30
0.0
 10
17.4049257243
 20
14.1127094904
 30
0.0
 10
17.3955314749
 20
14.111600958
 30
0.0
 10
17.3819831147
 20
14.107106134
 30
0.0
 10
17.3694565298
 20
14.100047515
 30
0.0
 10
17.3588322988
 20
14.0909158006
 30
0.0
 10
17.3520377332
 20
14.0818927668
 30
0.0
 10
17.3483067896
 20
14.0742456773
 30
0.0
 10
17.3464411422
 20
14.0685453696
 30
0.0
 10
17.3454934982
 20
14.0628740998
 30
0.0
 10
17.3454874522
 20
14.05733412
 30
0.0
 10
17.3464287905
 20
14.0520326978
 30
0.0
 10
17.3476850726
 20
14.0487127922
 30
0.0
 10
17.3484553767
 20
14.0471434583
 30
0.0
  0
SPLINE
  5
3D9
100
AcDbEntity
  8
0
100
AcDbSpline
 62
7
  6
BYLAYER
 70
0
 71
3
 72
22
 73
18
 74
0
 42
0.0000001
 43
0.0000001
 44
0.0000000001
 40
0.0
 40
0.0
 40
0.0
 40
0.0
 40
0.0464467983
 40
0.0934247956
 40
0.141447669
 40
0.1909876384
 40
0.2424615874
 40
0.2962269659
 40
0.3525799018
 40
0.4117578652
 40
0.4739439446
 40
0.5392727765
 40
0.6078365461
 40
0.6796900243
 40
0.7548541616
 40
0.8333222496
 40
1.0
 40
1.0
 40
1.0
 40
1.0
 10
17.6611583453
 20
13.3889262454
 30
0.0
 10
17.656504568
 20
13.3889264581
 30
0.0
 10
17.6471346953
 20
13.388375876
 30
0.0
 10
17.6331495893
 20
13.3859037328
 30
0.0
 10
17.6192322131
 20
13.381793218
 30
0.0
 10
17.6054162299
 20
13.3760581986
 30
0.0
 10
17.5917300882
 20
13.3687151671
 30
0.0
 10
17.5782010738
 20
13.3597837125
 30
0.0
 10
17.5648549784
 20
13.3492852381
 30
0.0
 10
17.5517172553
 20
13.3372430282
 30
0.0
 10
17.5388128219
 20
13.3236829608
 30
0.0
 10
17.5261665261
 20
13.3086333295
 30
0.0
 10
17.5138031597
 20
13.2921249767
 30
0.0
 10
17.5017472891
 20
13.2741919084
 30
0.0
 10
17.4900225746
 20
13.2548705855
 30
0.0
 10
17.4745524148
 20
13.2267434475
 30
0.0
 10
17.4640067946
 20
13.2045277092
 30
0.0
 10
17.4573321929
 20
13.1892190915
 30
0.0
  0
SPLINE
  5
3DA
100
AcDbEntity
  8
0
100
AcDbSpline
 62
7
  6
BYLAYER
 70
0
 71
3
 72
29
 73
25
 74
0
 42
0.0000001
 43
0.0000001
 44
0.0000000001
 40
0.0
 40
0.0
 40
0.0
 40
0.0
 40
0.0176437977
 40
0.035468231
 40
0.0536468901
 40
0.0723409631
 40
0.1117979691
 40
0.1328315236
 40
0.1548451735
 40
0.177908394
 40
0.2020744639
 40
0.2273819278
 40
0.2538567
 40
0.281513211
 40
0.3103559465
 40
0.3715653806
 40
0.4373755165
 40
0.5075654543
 40
0.5818353925
 40
0.6598213831
 40
0.7411068792
 40
0.8252326817
 40
0.9117034398
 40
1.0
 40
1.0
 40
1.0
 40
1.0
 10
17.7624686515
 20
13.3889263448
 30
0.0
 10
17.7580830532
 20
13.3889263346
 30
0.0
 10
17.7492593218
 20
13.3884373382
 30
0.0
 10
17.7360815927
 20
13.3862429032
 30
0.0
 10
17.7229585643
 20
13.3825927903
 30
0.0
 10
17.7052618909
 20
13.3756788293
 30
0.0
 10
17.6880503627
 20
13.3658816592
 30
0.0
 10
17.6715479591
 20
13.353688034
 30
0.0
 10
17.6590759509
 20
13.3429645291
 30
0.0
 10
17.6468026038
 20
13.3308823264
 30
0.0
 10
17.6347460885
 20
13.3174623332
 30
0.0
 10
17.6229279837
 20
13.3027298629
 30
0.0
 10
17.6113690762
 20
13.2867115698
 30
0.0
 10
17.6000895631
 20
13.2694366741
 30
0.0
 10
17.585153924
 20
13.2442692951
 30
0.0
 10
17.5674016289
 20
13.209790766
 30
0.0
 10
17.5479314029
 20
13.1647713661
 30
0.0
 10
17.5300288299
 20
13.1156389659
 30
0.0
 10
17.5138248956
 20
13.0627515072
 30
0.0
 10
17.4994384196
 20
13.0064925743
 30
0.0
 10
17.4869756171
 20
12.9472730586
 30
0.0
 10
17.4765287863
 20
12.8855262915
 30
0.0
 10
17.468175241
 20
12.8217057156
 30
0.0
 10
17.464077368
 20
12.7784481729
 30
0.0
 10
17.4623816161
 20
12.7565665088
 30
0.0
  0
SPLINE
  5
3DB
100
AcDbEntity
  8
0
100
AcDbSpline
 62
7
  6
BYLAYER
 70
0
 71
3
 72
22
 73
18
 74
0
 42
0.0000001
 43
0.0000001
 44
0.0000000001
 40
0.0
 40
0.0
 40
0.0
 40
0.0
 40
0.047896806
 40
0.0962606961
 40
0.1455420561
 40
0.1961604974
 40
0.2484944641
 40
0.3028754304
 40
0.3595851749
 40
0.4188570919
 40
0.4808789823
 40
0.5457962927
 40
0.6137174085
 40
0.6847172985
 40
0.7588397289
 40
0.8361044506
 40
1.0
 40
1.0
 40
1.0
 40
1.0
 10
17.680085577
 20
11.6970577259
 30
0.0
 10
17.6748147054
 20
11.6970580602
 30
0.0
 10
17.6642129011
 20
11.6976322893
 30
0.0
 10
17.6483760609
 20
11.7002067391
 30
0.0
 10
17.6326024775
 20
11.7044885943
 30
0.0
 10
17.6169248206
 20
11.7104661602
 30
0.0
 10
17.6013706396
 20
11.7181246141
 30
0.0
 10
17.5859669523
 20
11.7274471123
 30
0.0
 10
17.5707391327
 20
11.7384142963
 30
0.0
 10
17.5557120507
 20
11.7510051142
 30
0.0
 10
17.5409103152
 20
11.7651965415
 30
0.0
 10
17.5263579943
 20
11.7809630223
 30
0.0
 10
17.5120792481
 20
11.7982770129
 30
0.0
 10
17.4980982095
 20
11.8171081947
 30
0.0
 10
17.4844377959
 20
11.8374240332
 30
0.0
 10
17.4663276312
 20
11.8670273382
 30
0.0
 10
17.4538527574
 20
11.8904878246
 30
0.0
 10
17.4459070776
 20
11.9066794176
 30
0.0
  0
SPLINE
  5
3DC
100
AcDbEntity
  8
02___PRT_ALL_AXES
100
AcDbSpline
 62
7
  6
BYLAYER
 70
0
 71
3
 72
11
 73
7
 74
0
 42
0.0000001
 43
0.0000001
 44
0.0000000001
 40
0.0
 40
0.0
 40
0.0
 40
0.0
 40
0.2393009088
 40
0.482830382
 40
0.7352667238
 40
1.0
 40
1.0
 40
1.0
 40
1.0
 10
17.8582939513
 20
12.7921442972
 30
0.0
 10
17.8576552197
 20
12.7933102447
 30
0.0
 10
17.8566220235
 20
12.7958130299
 30
0.0
 10
17.8559089079
 20
12.7998649018
 30
0.0
 10
17.8560375966
 20
12.8041156132
 30
0.0
 10
17.856661853
 20
12.8069381777
 30
0.0
 10
17.8570960823
 20
12.8083433441
 30
0.0
  0
SPLINE
  5
3DD
100
AcDbEntity
  8
03___PRT_ALL_CURVES
100
AcDbSpline
 62
7
  6
BYLAYER
 70
0
 71
3
 72
111
 73
107
 74
0
 42
0.0000001
 43
0.0000001
 44
0.0000000001
 40
0.0
 40
0.0
 40
0.0
 40
0.0
 40
0.0625
 40
0.09375
 40
0.109375
 40
0.125
 40
0.140625
 40
0.1484375
 40
0.15625
 40
0.16015625
 40
0.1640625
 40
0.166015625
 40
0.1669921875
 40
0.16796875
 40
0.169921875
 40
0.171875
 40
0.1796875
 40
0.1875
 40
0.1953125
 40
0.203125
 40
0.21875
 40
0.25
 40
0.28125
 40
0.296875
 40
0.3046875
 40
0.3125
 40
0.3203125
 40
0.32421875
 40
0.328125
 40
0.330078125
 40
0.33203125
 40
0.3330078125
 40
0.333984375
 40
0.3359375
 40
0.33984375
 40
0.34375
 40
0.3515625
 40
0.359375
 40
0.375
 40
0.390625
 40
0.40625
 40
0.421875
 40
0.4375
 40
0.453125
 40
0.46875
 40
0.4765625
 40
0.484375
 40
0.48828125
 40
0.4921875
 40
0.49609375
 40
0.498046875
 40
0.4990234375
 40
0.5
 40
0.5009765625
 40
0.501953125
 40
0.50390625
 40
0.5078125
 40
0.51171875
 40
0.515625
 40
0.5234375
 40
0.53125
 40
0.546875
 40
0.5625
 40
0.578125
 40
0.59375
 40
0.609375
 40
0.625
 40
0.640625
 40
0.6484375
 40
0.65625
 40
0.66015625
 40
0.6640625
 40
0.666015625
 40
0.6669921875
 40
0.66796875
 40
0.669921875
 40
0.671875
 40
0.67578125
 40
0.6796875
 40
0.6875
 40
0.6953125
 40
0.703125
 40
0.71875
 40
0.75
 40
0.78125
 40
0.796875
 40
0.8046875
 40
0.8125
 40
0.8203125
 40
0.82421875
 40
0.828125
 40
0.830078125
 40
0.83203125
 40
0.8330078125
 40
0.833984375
 40
0.8359375
 40
0.83984375
 40
0.84375
 40
0.8515625
 40
0.859375
 40
0.875
 40
0.890625
 40
0.90625
 40
0.9375
 40
0.96875
 40
1.0
 40
1.0
 40
1.0
 40
1.0
 10
17.4459070776
 20
11.9066794176
 30
0.0
 10
17.4500623232
 20
11.8991149064
 30
0.0
 10
17.4562951937
 20
11.8877681441
 30
0.0
 10
17.4635668689
 20
11.874530239
 30
0.0
 10
17.4677221218
 20
11.8669657444
 30
0.0
 10
17.4708385339
 20
11.8612923103
 30
0.0
 10
17.4734356317
 20
11.8565646494
 30
0.0
 10
17.4755131132
 20
11.8527820701
 30
0.0
 10
17.476811987
 20
11.8504189843
 30
0.0
 10
17.4778500603
 20
11.8485261653
 30
0.0
 10
17.4785011966
 20
11.8473485161
 30
0.0
 10
17.4789523015
 20
11.8465134141
 30
0.0
 10
17.4792174144
 20
11.8460530286
 30
0.0
 10
17.4795101681
 20
11.8456559786
 30
0.0
 10
17.4798666625
 20
11.8451380178
 30
0.0
 10
17.480730025
 20
11.8439127295
 30
0.0
 10
17.4820218028
 20
11.8420673134
 30
0.0
 10
17.4837460398
 20
11.8396110359
 30
0.0
 10
17.4854697775
 20
11.8371536142
 30
0.0
 10
17.4877682686
 20
11.8338774511
 30
0.0
 10
17.491790547
 20
11.82814398
 30
0.0
 10
17.4975367008
 20
11.8199534008
 30
0.0
 10
17.5032828418
 20
11.8117628002
 30
0.0
 10
17.5073051382
 20
11.8060293591
 30
0.0
 10
17.509603601
 20
11.8027531489
 30
0.0
 10
17.5113274256
 20
11.8002958718
 30
0.0
 10
17.5127640178
 20
11.7982485214
 30
0.0
 10
17.5139131307
 20
11.7966097876
 30
0.0
 10
17.5146316927
 20
11.7955875223
 30
0.0
 10
17.5152057031
 20
11.7947652595
 30
0.0
 10
17.5155663742
 20
11.7942615001
 30
0.0
 10
17.5158505259
 20
11.7938352335
 30
0.0
 10
17.5161506866
 20
11.7934938792
 30
0.0
 10
17.5166834047
 20
11.7929359543
 30
0.0
 10
17.5174405503
 20
11.7921183382
 30
0.0
 10
17.5186541517
 20
11.7908216539
 30
0.0
 10
17.520170411
 20
11.7891968604
 30
0.0
 10
17.5225968408
 20
11.7865993918
 30
0.0
 10
17.5256297357
 20
11.7833518008
 30
0.0
 10
17.5292692707
 20
11.7794550155
 30
0.0
 10
17.5329087892
 20
11.7755581432
 30
0.0
 10
17.5365483122
 20
11.7716612949
 30
0.0
 10
17.5401878337
 20
11.7677644374
 30
0.0
 10
17.543827357
 20
11.7638675927
 30
0.0
 10
17.5468602883
 20
11.7606201874
 30
0.0
 10
17.5492866439
 20
11.7580223399
 30
0.0
 10
17.5508030921
 20
11.7563985106
 30
0.0
 10
17.5520163057
 20
11.7550998472
 30
0.0
 10
17.5529260653
 20
11.7541247542
 30
0.0
 10
17.5536846772
 20
11.7533156616
 30
0.0
 10
17.5542147659
 20
11.7527424578
 30
0.0
 10
17.5545191408
 20
11.7524255912
 30
0.0
 10
17.5547432891
 20
11.75215786
 30
0.0
 10
17.5549832356
 20
11.7520051144
 30
0.0
 10
17.5552976538
 20
11.7517613453
 30
0.0
 10
17.555850453
 20
11.7513534366
 30
0.0
 10
17.5566388239
 20
11.7507609401
 30
0.0
 10
17.5575854435
 20
11.750054126
 30
0.0
 10
17.5588474023
 20
11.7491102466
 30
0.0
 10
17.5604249195
 20
11.7479308975
 30
0.0
 10
17.5629489086
 20
11.7460436594
 30
0.0
 10
17.5661039082
 20
11.7436847078
 30
0.0
 10
17.569889902
 20
11.7408539243
 30
0.0
 10
17.5736758975
 20
11.7380231536
 30
0.0
 10
17.577461892
 20
11.7351923732
 30
0.0
 10
17.5812478888
 20
11.7323616187
 30
0.0
 10
17.5850338772
 20
11.7295307702
 30
0.0
 10
17.5881888938
 20
11.7271720218
 30
0.0
 10
17.5907128482
 20
11.7252843691
 30
0.0
 10
17.5922904539
 20
11.7241060752
 30
0.0
 10
17.593552231
 20
11.7231600299
 30
0.0
 10
17.5943415432
 20
11.7225765324
 30
0.0
 10
17.5948926559
 20
11.7221524905
 30
0.0
 10
17.5952097769
 20
11.7219345785
 30
0.0
 10
17.5955351832
 20
11.7218085765
 30
0.0
 10
17.5959391042
 20
11.7216196042
 30
0.0
 10
17.5965869631
 20
11.7213348353
 30
0.0
 10
17.597396244
 20
11.7209728524
 30
0.0
 10
17.5986913967
 20
11.7203970453
 30
0.0
 10
17.6003102336
 20
11.7196761318
 30
0.0
 10
17.6022528823
 20
11.7188115298
 30
0.0
 10
17.6048430652
 20
11.7176585547
 30
0.0
 10
17.6093758924
 20
11.7156409291
 30
0.0
 10
17.6158513555
 20
11.7127585605
 30
0.0
 10
17.6223268223
 20
11.709876223
 30
0.0
 10
17.6268596442
 20
11.7078585539
 30
0.0
 10
17.6294498355
 20
11.7067056471
 30
0.0
 10
17.6313924584
 20
11.7058408353
 30
0.0
 10
17.633011376
 20
11.7051205784
 30
0.0
 10
17.634306364
 20
11.7045434317
 30
0.0
 10
17.6351160642
 20
11.7041848582
 30
0.0
 10
17.6357630625
 20
11.703893091
 30
0.0
 10
17.6361691745
 20
11.7037219359
 30
0.0
 10
17.6364900833
 20
11.7035593603
 30
0.0
 10
17.6368255248
 20
11.7034904316
 30
0.0
 10
17.6374192984
 20
11.7034133095
 30
0.0
 10
17.6382640242
 20
11.7032804374
 30
0.0
 10
17.6396175537
 20
11.7030805266
 30
0.0
 10
17.6413087917
 20
11.7028262949
 30
0.0
 10
17.6440151492
 20
11.7024219515
 30
0.0
 10
17.6473979668
 20
11.7019156895
 30
0.0
 10
17.6514574032
 20
11.7013085315
 30
0.0
 10
17.6568699658
 20
11.700498863
 30
0.0
 10
17.6636356757
 20
11.6994868202
 30
0.0
 10
17.6717545247
 20
11.6982723503
 30
0.0
 10
17.6771670913
 20
11.6974627073
 30
0.0
 10
17.6798733745
 20
11.6970578853
 30
0.0
  0
LINE
  5
3DE
100
AcDbEntity
  8
03___PRT_ALL_CURVES
100
AcDbLine
 62
7
  6
BYLAYER
 10
17.4382556397
 20
11.9227834961
 11
17.4459070774
 21
11.906679418
  0
SPLINE
  5
3DF
100
AcDbEntity
  8
03___PRT_ALL_CURVES
100
AcDbSpline
 62
7
  6
BYLAYER
 70
0
 71
3
 72
91
 73
87
 74
0
 42
0.0000001
 43
0.0000001
 44
0.0000000001
 40
0.0
 40
0.0
 40
0.0
 40
0.0
 40
0.0625
 40
0.09375
 40
0.109375
 40
0.125
 40
0.140625
 40
0.1484375
 40
0.15625
 40
0.16015625
 40
0.1640625
 40
0.166015625
 40
0.16796875
 40
0.171875
 40
0.1796875
 40
0.1875
 40
0.203125
 40
0.21875
 40
0.25
 40
0.28125
 40
0.296875
 40
0.3125
 40
0.3203125
 40
0.328125
 40
0.33203125
 40
0.333984375
 40
0.3359375
 40
0.33984375
 40
0.34375
 40
0.3515625
 40
0.359375
 40
0.375
 40
0.390625
 40
0.40625
 40
0.421875
 40
0.4375
 40
0.453125
 40
0.46875
 40
0.4765625
 40
0.484375
 40
0.4921875
 40
0.49609375
 40
0.498046875
 40
0.5
 40
0.501953125
 40
0.50390625
 40
0.5078125
 40
0.515625
 40
0.5234375
 40
0.53125
 40
0.546875
 40
0.5625
 40
0.578125
 40
0.59375
 40
0.609375
 40
0.625
 40
0.640625
 40
0.6484375
 40
0.65625
 40
0.66015625
 40
0.6640625
 40
0.666015625
 40
0.66796875
 40
0.671875
 40
0.6796875
 40
0.6875
 40
0.703125
 40
0.71875
 40
0.75
 40
0.78125
 40
0.796875
 40
0.8125
 40
0.8203125
 40
0.828125
 40
0.83203125
 40
0.833984375
 40
0.8359375
 40
0.83984375
 40
0.84375
 40
0.8515625
 40
0.859375
 40
0.875
 40
0.890625
 40
0.90625
 40
0.9375
 40
1.0
 40
1.0
 40
1.0
 40
1.0
 10
17.6415754326
 20
14.148588257
 30
0.0
 10
17.6353382618
 20
14.1481792458
 30
0.0
 10
17.6259825044
 20
14.1475657188
 30
0.0
 10
17.6150674584
 20
14.1468499729
 30
0.0
 10
17.608830283
 20
14.1464409244
 30
0.0
 10
17.604152419
 20
14.1461342803
 30
0.0
 10
17.6002541433
 20
14.1458782904
 30
0.0
 10
17.5971356475
 20
14.145674515
 30
0.0
 10
17.5951863035
 20
14.1455448407
 30
0.0
 10
17.5936274792
 20
14.1454464023
 30
0.0
 10
17.5926517288
 20
14.1453727831
 30
0.0
 10
17.5918745302
 20
14.1453415909
 30
0.0
 10
17.591084913
 20
14.1452092621
 30
0.0
 10
17.589697314
 20
14.1449307045
 30
0.0
 10
17.5877180396
 20
14.1445572781
 30
0.0
 10
17.5845495186
 20
14.1439460965
 30
0.0
 10
17.5805894431
 20
14.1431868122
 30
0.0
 10
17.5742530013
 20
14.1419693232
 30
0.0
 10
17.5663325537
 20
14.1404484467
 30
0.0
 10
17.5584120888
 20
14.1389269238
 30
0.0
 10
17.5520756746
 20
14.137710469
 30
0.0
 10
17.54811553
 20
14.136948599
 30
0.0
 10
17.5449471507
 20
14.136342718
 30
0.0
 10
17.5429675156
 20
14.1359557979
 30
0.0
 10
17.5415805645
 20
14.1357014765
 30
0.0
 10
17.5407899088
 20
14.1355302987
 30
0.0
 10
17.540006365
 20
14.1352617352
 30
0.0
 10
17.5390245002
 20
14.1349593756
 30
0.0
 10
17.5374548772
 20
14.1344569657
 30
0.0
 10
17.5354923827
 20
14.1338353338
 30
0.0
 10
17.5323526517
 20
14.1328371567
 30
0.0
 10
17.5284278987
 20
14.131590659
 30
0.0
 10
17.5237182335
 20
14.1300943369
 30
0.0
 10
17.5190085576
 20
14.1285981564
 30
0.0
 10
17.5142988858
 20
14.1271019341
 30
0.0
 10
17.5095892086
 20
14.1256057377
 30
0.0
 10
17.5048795487
 20
14.1241094795
 30
0.0
 10
17.5009547789
 20
14.122862782
 30
0.0
 10
17.4978150823
 20
14.1218650126
 30
0.0
 10
17.4954599839
 20
14.1211178091
 30
0.0
 10
17.4934984387
 20
14.1204915657
 30
0.0
 10
17.4921233225
 20
14.1200602088
 30
0.0
 10
17.4913407186
 20
14.1198027681
 30
0.0
 10
17.4907448165
 20
14.1196405368
 30
0.0
 10
17.4901831225
 20
14.1193603845
 30
0.0
 10
17.4894222651
 20
14.1190279802
 30
0.0
 10
17.4880963239
 20
14.1184271084
 30
0.0
 10
17.4861992158
 20
14.1175787395
 30
0.0
 10
17.48392393
 20
14.1165564082
 30
0.0
 10
17.4808897812
 20
14.1151947979
 30
0.0
 10
17.4770972443
 20
14.1134922709
 30
0.0
 10
17.4725461358
 20
14.1114494594
 30
0.0
 10
17.4679950456
 20
14.1094065866
 30
0.0
 10
17.4634439462
 20
14.1073637382
 30
0.0
 10
17.4588928655
 20
14.1053208535
 30
0.0
 10
17.4543417192
 20
14.1032780895
 30
0.0
 10
17.4505493002
 20
14.101575414
 30
0.0
 10
17.4475149109
 20
14.1002141064
 30
0.0
 10
17.4456194513
 20
14.0993613933
 30
0.0
 10
17.4441007161
 20
14.0986835648
 30
0.0
 10
17.4431569087
 20
14.0982500148
 30
0.0
 10
17.4423894897
 20
14.0979258666
 30
0.0
 10
17.4416672413
 20
14.0975188771
 30
0.0
 10
17.4404242904
 20
14.0967681625
 30
0.0
 10
17.438637698
 20
14.0957157915
 30
0.0
 10
17.4357852687
 20
14.094020777
 30
0.0
 10
17.432217636
 20
14.0919058524
 30
0.0
 10
17.4265106019
 20
14.0885198161
 30
0.0
 10
17.4193763562
 20
14.0842880738
 30
0.0
 10
17.4122424498
 20
14.0800558155
 30
0.0
 10
17.4065348729
 20
14.0766706046
 30
0.0
 10
17.4029685973
 20
14.0745536163
 30
0.0
 10
17.4001133857
 20
14.0728628324
 30
0.0
 10
17.3983338764
 20
14.0717996915
 30
0.0
 10
17.3970782034
 20
14.0710683209
 30
0.0
 10
17.3963763477
 20
14.0706303241
 30
0.0
 10
17.3957335297
 20
14.0701167176
 30
0.0
 10
17.3949097927
 20
14.0695005981
 30
0.0
 10
17.3936031103
 20
14.0685003391
 30
0.0
 10
17.3919658893
 20
14.0672549692
 30
0.0
 10
17.3893484975
 20
14.0652596086
 30
0.0
 10
17.386076016
 20
14.0627663578
 30
0.0
 10
17.3821493557
 20
14.0597740503
 30
0.0
 10
17.3769136979
 20
14.0557844488
 30
0.0
 10
17.3677513486
 20
14.0488025796
 30
0.0
 10
17.3598978886
 20
14.0428181431
 30
0.0
 10
17.3546622525
 20
14.0388285138
 30
0.0
  0
SPLINE
  5
3E0
100
AcDbEntity
  8
03___PRT_ALL_CURVES
100
AcDbSpline
 62
7
  6
BYLAYER
 70
0
 71
3
 72
143
 73
139
 74
0
 42
0.0000001
 43
0.0000001
 44
0.0000000001
 40
0.0
 40
0.0
 40
0.0
 40
0.0
 40
0.03125
 40
0.0625
 40
0.078125
 40
0.09375
 40
0.109375
 40
0.1171875
 40
0.125
 40
0.12890625
 40
0.1328125
 40
0.13671875
 40
0.138671875
 40
0.140625
 40
0.1416015625
 40
0.142578125
 40
0.14453125
 40
0.146484375
 40
0.1484375
 40
0.15234375
 40
0.15625
 40
0.1640625
 40
0.171875
 40
0.1875
 40
0.203125
 40
0.21875
 40
0.234375
 40
0.25
 40
0.2578125
 40
0.265625
 40
0.2734375
 40
0.27734375
 40
0.28125
 40
0.283203125
 40
0.2841796875
 40
0.28515625
 40
0.2856445312
 40
0.2861328125
 40
0.287109375
 40
0.2890625
 40
0.29296875
 40
0.296875
 40
0.3046875
 40
0.3125
 40
0.328125
 40
0.34375
 40
0.375
 40
0.390625
 40
0.3984375
 40
0.40625
 40
0.4140625
 40
0.41796875
 40
0.421875
 40
0.42578125
 40
0.4267578125
 40
0.427734375
 40
0.4287109375
 40
0.4296875
 40
0.431640625
 40
0.43359375
 40
0.4375
 40
0.44140625
 40
0.4453125
 40
0.453125
 40
0.4609375
 40
0.46875
 40
0.484375
 40
0.5
 40
0.515625
 40
0.53125
 40
0.5390625
 40
0.546875
 40
0.5546875
 40
0.55859375
 40
0.5625
 40
0.56640625
 40
0.568359375
 40
0.5703125
 40
0.5708007812
 40
0.5712890625
 40
0.572265625
 40
0.5732421875
 40
0.57421875
 40
0.578125
 40
0.58203125
 40
0.5859375
 40
0.59375
 40
0.6015625
 40
0.609375
 40
0.625
 40
0.65625
 40
0.671875
 40
0.6875
 40
0.6953125
 40
0.69921875
 40
0.703125
 40
0.70703125
 40
0.7109375
 40
0.712890625
 40
0.7138671875
 40
0.7143554688
 40
0.71484375
 40
0.7158203125
 40
0.716796875
 40
0.71875
 40
0.720703125
 40
0.72265625
 40
0.7265625
 40
0.734375
 40
0.7421875
 40
0.75
 40
0.765625
 40
0.78125
 40
0.796875
 40
0.8125
 40
0.828125
 40
0.8359375
 40
0.84375
 40
0.84765625
 40
0.8515625
 40
0.853515625
 40
0.85546875
 40
0.857421875
 40
0.8583984375
 40
0.859375
 40
0.861328125
 40
0.86328125
 40
0.8671875
 40
0.87109375
 40
0.875
 40
0.8828125
 40
0.890625
 40
0.8984375
 40
0.90625
 40
0.921875
 40
0.9375
 40
0.96875
 40
1.0
 40
1.0
 40
1.0
 40
1.0
 10
17.3546622573
 20
14.0388285179
 30
0.0
 10
17.350995752
 20
14.0350699628
 30
0.0
 10
17.3436627416
 20
14.0275528527
 30
0.0
 10
17.3344964781
 20
14.0181564651
 30
0.0
 10
17.3271634682
 20
14.0106393548
 30
0.0
 10
17.3216637086
 20
14.0050015229
 30
0.0
 10
17.3170805822
 20
14.0003033269
 30
0.0
 10
17.3134140664
 20
13.9965447762
 30
0.0
 10
17.3111225275
 20
13.9941956682
 30
0.0
 10
17.3092892196
 20
13.9923164134
 30
0.0
 10
17.3079144491
 20
13.990906886
 30
0.0
 10
17.3067681375
 20
13.9897325541
 30
0.0
 10
17.3058525897
 20
13.9887924736
 30
0.0
 10
17.3052769535
 20
13.9882063235
 30
0.0
 10
17.3048242744
 20
13.9877341966
 30
0.0
 10
17.3043430106
 20
13.987273777
 30
0.0
 10
17.3039460292
 20
13.9866144565
 30
0.0
 10
17.3034218197
 20
13.9858428621
 30
0.0
 10
17.3027395804
 20
13.9848072271
 30
0.0
 10
17.3018810609
 20
13.9835150262
 30
0.0
 10
17.3005106265
 20
13.9814461955
 30
0.0
 10
17.298796489
 20
13.9788606054
 30
0.0
 10
17.2960544806
 20
13.9747234107
 30
0.0
 10
17.2926267603
 20
13.9695520033
 30
0.0
 10
17.2885135856
 20
13.9633462776
 30
0.0
 10
17.2844003881
 20
13.9571405616
 30
0.0
 10
17.2802871923
 20
13.9509348437
 30
0.0
 10
17.2768595425
 20
13.9457634103
 30
0.0
 10
17.2741173897
 20
13.9416262688
 30
0.0
 10
17.2720608658
 20
13.938523398
 30
0.0
 10
17.2703468072
 20
13.9359377193
 30
0.0
 10
17.2689762079
 20
13.9338690708
 30
0.0
 10
17.2681181089
 20
13.932576406
 30
0.0
 10
17.2675203942
 20
13.9316710587
 30
0.0
 10
17.2671742201
 20
13.9311544713
 30
0.0
 10
17.266968715
 20
13.9308298342
 30
0.0
 10
17.2667794178
 20
13.930574184
 30
0.0
 10
17.2666810101
 20
13.9303037119
 30
0.0
 10
17.2664929546
 20
13.9298329691
 30
0.0
 10
17.2661280895
 20
13.9288896497
 30
0.0
 10
17.2656009862
 20
13.9275430074
 30
0.0
 10
17.2647608998
 20
13.925387845
 30
0.0
 10
17.2637096692
 20
13.922694075
 30
0.0
 10
17.2620283275
 20
13.9183839408
 30
0.0
 10
17.2599264356
 20
13.912996308
 30
0.0
 10
17.2565635292
 20
13.9043760759
 30
0.0
 10
17.2532005863
 20
13.8957558495
 30
0.0
 10
17.2502580277
 20
13.8882131495
 30
0.0
 10
17.2485765557
 20
13.8839030356
 30
0.0
 10
17.2473154769
 20
13.8806704496
 30
0.0
 10
17.2462644982
 20
13.8779766296
 30
0.0
 10
17.2454238938
 20
13.8758215699
 30
0.0
 10
17.2447929524
 20
13.8742052853
 30
0.0
 10
17.2443211439
 20
13.8729930426
 30
0.0
 10
17.2440044282
 20
13.8721849264
 30
0.0
 10
17.2438499579
 20
13.8717807869
 30
0.0
 10
17.2436803726
 20
13.8713769639
 30
0.0
 10
17.2436523823
 20
13.8708343841
 30
0.0
 10
17.2435495568
 20
13.87015758
 30
0.0
 10
17.2434229504
 20
13.8690738994
 30
0.0
 10
17.2432516841
 20
13.8677195711
 30
0.0
 10
17.2430517325
 20
13.8660942605
 30
0.0
 10
17.2427831855
 20
13.8639272205
 30
0.0
 10
17.242448169
 20
13.8612184065
 30
0.0
 10
17.2420458636
 20
13.8579678356
 30
0.0
 10
17.2415095562
 20
13.8536337391
 30
0.0
 10
17.2408391377
 20
13.8482161192
 30
0.0
 10
17.24003465
 20
13.8417149749
 30
0.0
 10
17.2392301592
 20
13.8352138309
 30
0.0
 10
17.2385597484
 20
13.8297962102
 30
0.0
 10
17.2380234256
 20
13.8254621152
 30
0.0
 10
17.237621167
 20
13.8222115395
 30
0.0
 10
17.2372860044
 20
13.8195027408
 30
0.0
 10
17.2370177555
 20
13.8173356695
 30
0.0
 10
17.2368168934
 20
13.8157104545
 30
0.0
 10
17.2366484758
 20
13.814355827
 30
0.0
 10
17.2365160576
 20
13.8132727569
 30
0.0
 10
17.2364368263
 20
13.8126622349
 30
0.0
 10
17.2363915536
 20
13.81225728
 30
0.0
 10
17.2363433527
 20
13.811982393
 30
0.0
 10
17.2364144709
 20
13.8116746318
 30
0.0
 10
17.236469165
 20
13.8112969553
 30
0.0
 10
17.2365943184
 20
13.8105459043
 30
0.0
 10
17.2367754281
 20
13.8094175212
 30
0.0
 10
17.2370206861
 20
13.8079140414
 30
0.0
 10
17.2373463768
 20
13.8059090416
 30
0.0
 10
17.2377539431
 20
13.8034029154
 30
0.0
 10
17.2382428289
 20
13.800395511
 30
0.0
 10
17.2388947441
 20
13.796385657
 30
0.0
 10
17.2400355647
 20
13.789368404
 30
0.0
 10
17.2413393699
 20
13.7813486887
 30
0.0
 10
17.24264318
 20
13.7733289759
 30
0.0
 10
17.2434580404
 20
13.768316647
 30
0.0
 10
17.2440284856
 20
13.764808034
 30
0.0
 10
17.244354387
 20
13.7628030853
 30
0.0
 10
17.2445990025
 20
13.7612994496
 30
0.0
 10
17.2448428941
 20
13.7597955241
 30
0.0
 10
17.2450483922
 20
13.7585431559
 30
0.0
 10
17.2451878218
 20
13.7576647284
 30
0.0
 10
17.2452635732
 20
13.7572279323
 30
0.0
 10
17.2452971426
 20
13.7569744429
 30
0.0
 10
17.2454282713
 20
13.756760025
 30
0.0
 10
17.2455587777
 20
13.7564786246
 30
0.0
 10
17.2457862578
 20
13.7560358609
 30
0.0
 10
17.2460642024
 20
13.755479841
 30
0.0
 10
17.2464004774
 20
13.7548137151
 30
0.0
 10
17.2468478879
 20
13.7539251642
 30
0.0
 10
17.2476313017
 20
13.7523703786
 30
0.0
 10
17.2487502314
 20
13.750149163
 30
0.0
 10
17.2500930467
 20
13.7474837442
 30
0.0
 10
17.2518834322
 20
13.7439298385
 30
0.0
 10
17.2541214265
 20
13.7394874615
 30
0.0
 10
17.2568070124
 20
13.7341566058
 30
0.0
 10
17.2594926074
 20
13.7288257548
 30
0.0
 10
17.2621781734
 20
13.7234948882
 30
0.0
 10
17.2644162344
 20
13.7190525475
 30
0.0
 10
17.2662064831
 20
13.7154985673
 30
0.0
 10
17.2673258441
 20
13.7132775748
 30
0.0
 10
17.2682202896
 20
13.7115002192
 30
0.0
 10
17.2687816986
 20
13.7103906535
 30
0.0
 10
17.2692253733
 20
13.7095000657
 30
0.0
 10
17.2695730584
 20
13.7088401616
 30
0.0
 10
17.2698153041
 20
13.7082646754
 30
0.0
 10
17.2702041199
 20
13.7079092699
 30
0.0
 10
17.2705588775
 20
13.7075355301
 30
0.0
 10
17.2710139861
 20
13.707074633
 30
0.0
 10
17.2717356422
 20
13.706333689
 30
0.0
 10
17.2726399485
 20
13.7054087129
 30
0.0
 10
17.2737241589
 20
13.7042982263
 30
0.0
 10
17.2751701071
 20
13.7028177574
 30
0.0
 10
17.2769774276
 20
13.7009671096
 30
0.0
 10
17.2791462615
 20
13.6987463587
 30
0.0
 10
17.2813150821
 20
13.6965256007
 30
0.0
 10
17.2842068476
 20
13.6935645925
 30
0.0
 10
17.2878215529
 20
13.6898633314
 30
0.0
 10
17.2936050823
 20
13.6839413142
 30
0.0
 10
17.3008344936
 20
13.6765387925
 30
0.0
 10
17.3066180228
 20
13.6706167751
 30
0.0
 10
17.3095097874
 20
13.6676557664
 30
0.0
  0
SPLINE
  5
3E1
100
AcDbEntity
  8
03___PRT_ALL_CURVES
100
AcDbSpline
 62
7
  6
BYLAYER
 70
0
 71
3
 72
76
 73
72
 74
0
 42
0.0000001
 43
0.0000001
 44
0.0000000001
 40
0.0
 40
0.0
 40
0.0
 40
0.0
 40
0.0625
 40
0.09375
 40
0.109375
 40
0.125
 40
0.140625
 40
0.15625
 40
0.16015625
 40
0.1640625
 40
0.16796875
 40
0.171875
 40
0.1796875
 40
0.1875
 40
0.203125
 40
0.21875
 40
0.25
 40
0.28125
 40
0.296875
 40
0.3125
 40
0.3203125
 40
0.328125
 40
0.33203125
 40
0.3359375
 40
0.33984375
 40
0.34375
 40
0.359375
 40
0.375
 40
0.390625
 40
0.40625
 40
0.4375
 40
0.453125
 40
0.46875
 40
0.484375
 40
0.4921875
 40
0.49609375
 40
0.5
 40
0.50390625
 40
0.5078125
 40
0.515625
 40
0.53125
 40
0.546875
 40
0.5625
 40
0.59375
 40
0.609375
 40
0.625
 40
0.640625
 40
0.65625
 40
0.6640625
 40
0.66796875
 40
0.671875
 40
0.6796875
 40
0.6875
 40
0.703125
 40
0.71875
 40
0.75
 40
0.78125
 40
0.796875
 40
0.8125
 40
0.8203125
 40
0.828125
 40
0.83203125
 40
0.8359375
 40
0.83984375
 40
0.84375
 40
0.859375
 40
0.875
 40
0.890625
 40
0.90625
 40
0.9375
 40
1.0
 40
1.0
 40
1.0
 40
1.0
 10
17.3095097835
 20
13.6676557694
 30
0.0
 10
17.3122565228
 20
13.6658226788
 30
0.0
 10
17.3163766444
 20
13.6630730507
 30
0.0
 10
17.3211834085
 20
13.6598651239
 30
0.0
 10
17.3239301943
 20
13.6580320619
 30
0.0
 10
17.3259901058
 20
13.6566571561
 30
0.0
 10
17.3280506973
 20
13.655282668
 30
0.0
 10
17.3295942343
 20
13.6542506309
 30
0.0
 10
17.3306262241
 20
13.6535644273
 30
0.0
 10
17.3311369243
 20
13.6532180735
 30
0.0
 10
17.3316682102
 20
13.6528843634
 30
0.0
 10
17.3324745418
 20
13.6524995771
 30
0.0
 10
17.3334489182
 20
13.6519979954
 30
0.0
 10
17.3350266633
 20
13.6512069766
 30
0.0
 10
17.3369924252
 20
13.650214259
 30
0.0
 10
17.3401412434
 20
13.6486281285
 30
0.0
 10
17.3440759508
 20
13.64664461
 30
0.0
 10
17.3480114206
 20
13.6446617411
 30
0.0
 10
17.351159019
 20
13.6430745713
 30
0.0
 10
17.3531278302
 20
13.642084452
 30
0.0
 10
17.3546993244
 20
13.6412881067
 30
0.0
 10
17.3556896138
 20
13.6408000848
 30
0.0
 10
17.3564632809
 20
13.6403874644
 30
0.0
 10
17.3570943613
 20
13.6401387911
 30
0.0
 10
17.3577396852
 20
13.6399071528
 30
0.0
 10
17.3590230061
 20
13.6394351133
 30
0.0
 10
17.3609510646
 20
13.6387307344
 30
0.0
 10
17.3635200514
 20
13.6377894602
 30
0.0
 10
17.3660895053
 20
13.6368487438
 30
0.0
 10
17.3695152967
 20
13.6355942835
 30
0.0
 10
17.372941037
 20
13.6343397383
 30
0.0
 10
17.3763670408
 20
13.6330855765
 30
0.0
 10
17.3789358041
 20
13.6321438898
 30
0.0
 10
17.3810787954
 20
13.6313625425
 30
0.0
 10
17.3825742671
 20
13.630808943
 30
0.0
 10
17.3834360395
 20
13.6305029939
 30
0.0
 10
17.384062038
 20
13.6302442535
 30
0.0
 10
17.3847657511
 20
13.6300974308
 30
0.0
 10
17.3856769275
 20
13.629862629
 30
0.0
 10
17.3872841163
 20
13.6294699147
 30
0.0
 10
17.3895734967
 20
13.6288993841
 30
0.0
 10
17.3923235816
 20
13.6282188214
 30
0.0
 10
17.395989364
 20
13.627309965
 30
0.0
 10
17.3996554743
 20
13.6264015972
 30
0.0
 10
17.4033213489
 20
13.6254928432
 30
0.0
 10
17.4060711341
 20
13.6248119478
 30
0.0
 10
17.4088195205
 20
13.6241285651
 30
0.0
 10
17.4111141889
 20
13.6235668119
 30
0.0
 10
17.4127119413
 20
13.623158435
 30
0.0
 10
17.4136382367
 20
13.6229487279
 30
0.0
 10
17.4146146048
 20
13.6228281042
 30
0.0
 10
17.4158179201
 20
13.6226468225
 30
0.0
 10
17.4177528061
 20
13.6223738182
 30
0.0
 10
17.4201681312
 20
13.6220267236
 30
0.0
 10
17.4240344961
 20
13.6214746502
 30
0.0
 10
17.428866746
 20
13.6207833302
 30
0.0
 10
17.4336995149
 20
13.620092826
 30
0.0
 10
17.4375650494
 20
13.6195394472
 30
0.0
 10
17.4399824506
 20
13.6191956162
 30
0.0
 10
17.4419130807
 20
13.6189159216
 30
0.0
 10
17.4431272304
 20
13.6187516716
 30
0.0
 10
17.4440813588
 20
13.618596087
 30
0.0
 10
17.4448440257
 20
13.6185456168
 30
0.0
 10
17.4456198826
 20
13.6185137021
 30
0.0
 10
17.4471648115
 20
13.6184403278
 30
0.0
 10
17.4494850547
 20
13.6183342752
 30
0.0
 10
17.4525770834
 20
13.6181905805
 30
0.0
 10
17.4556695478
 20
13.6180474986
 30
0.0
 10
17.4597926817
 20
13.617856509
 30
0.0
 10
17.4670082373
 20
13.6175223774
 30
0.0
 10
17.4731929748
 20
13.6172359445
 30
0.0
 10
17.4773161385
 20
13.6170449969
 30
0.0
  0
SPLINE
  5
3E2
100
AcDbEntity
  8
03___PRT_ALL_CURVES
100
AcDbSpline
 62
7
  6
BYLAYER
 70
0
 71
3
 72
69
 73
65
 74
0
 42
0.0000001
 43
0.0000001
 44
0.0000000001
 40
0.0
 40
0.0
 40
0.0
 40
0.0
 40
0.0625
 40
0.09375
 40
0.125
 40
0.140625
 40
0.15625
 40
0.1640625
 40
0.16796875
 40
0.171875
 40
0.1796875
 40
0.1875
 40
0.203125
 40
0.21875
 40
0.25
 40
0.28125
 40
0.296875
 40
0.3125
 40
0.3203125
 40
0.328125
 40
0.33203125
 40
0.3359375
 40
0.34375
 40
0.359375
 40
0.375
 40
0.40625
 40
0.4375
 40
0.453125
 40
0.46875
 40
0.484375
 40
0.4921875
 40
0.49609375
 40
0.5
 40
0.50390625
 40
0.5078125
 40
0.515625
 40
0.53125
 40
0.546875
 40
0.5625
 40
0.59375
 40
0.625
 40
0.640625
 40
0.65625
 40
0.6640625
 40
0.66796875
 40
0.671875
 40
0.6796875
 40
0.6875
 40
0.703125
 40
0.71875
 40
0.75
 40
0.78125
 40
0.796875
 40
0.8125
 40
0.8203125
 40
0.828125
 40
0.83203125
 40
0.8359375
 40
0.84375
 40
0.859375
 40
0.875
 40
0.90625
 40
0.9375
 40
1.0
 40
1.0
 40
1.0
 40
1.0
 10
17.4773161418
 20
13.6170449969
 30
0.0
 10
17.4813162449
 20
13.6172150672
 30
0.0
 10
17.4873164999
 20
13.6174703497
 30
0.0
 10
17.4953164388
 20
13.6178100182
 30
0.0
 10
17.500317236
 20
13.6180237862
 30
0.0
 10
17.5043159692
 20
13.6181914373
 30
0.0
 10
17.5068195212
 20
13.6183038898
 30
0.0
 10
17.5085633024
 20
13.618367234
 30
0.0
 10
17.5095733689
 20
13.6184274825
 30
0.0
 10
17.5106347439
 20
13.6185783378
 30
0.0
 10
17.5119438948
 20
13.6187358832
 30
0.0
 10
17.514048354
 20
13.6190052936
 30
0.0
 10
17.5166755662
 20
13.6193361176
 30
0.0
 10
17.5208809857
 20
13.6198687701
 30
0.0
 10
17.5261371071
 20
13.620533337
 30
0.0
 10
17.5313934905
 20
13.6211987309
 30
0.0
 10
17.5355984908
 20
13.62173006
 30
0.0
 10
17.538226751
 20
13.6220641923
 30
0.0
 10
17.5403290617
 20
13.6223268208
 30
0.0
 10
17.5416436821
 20
13.6225016313
 30
0.0
 10
17.5426938299
 20
13.6226170466
 30
0.0
 10
17.5437496309
 20
13.6228216601
 30
0.0
 10
17.545599909
 20
13.6232211699
 30
0.0
 10
17.5482417931
 20
13.6237702796
 30
0.0
 10
17.552469574
 20
13.6246609329
 30
0.0
 10
17.5577540335
 20
13.6257701405
 30
0.0
 10
17.5630386015
 20
13.6268806869
 30
0.0
 10
17.5672662089
 20
13.6277691983
 30
0.0
 10
17.5704369904
 20
13.6284345558
 30
0.0
 10
17.5730790748
 20
13.6289924093
 30
0.0
 10
17.5749289909
 20
13.629376239
 30
0.0
 10
17.5759853725
 20
13.629605984
 30
0.0
 10
17.576779668
 20
13.6297489567
 30
0.0
 10
17.5775662828
 20
13.6300040666
 30
0.0
 10
17.5786177815
 20
13.6303050985
 30
0.0
 10
17.5804566562
 20
13.6308501283
 30
0.0
 10
17.5830842721
 20
13.6316192168
 30
0.0
 10
17.5862371342
 20
13.6325461904
 30
0.0
 10
17.5904410367
 20
13.6337807835
 30
0.0
 10
17.5956959591
 20
13.6353241436
 30
0.0
 10
17.6009505964
 20
13.6368687434
 30
0.0
 10
17.605154955
 20
13.6381013531
 30
0.0
 10
17.6077811998
 20
13.6388787897
 30
0.0
 10
17.6096225358
 20
13.6394088503
 30
0.0
 10
17.6106700894
 20
13.6397338741
 30
0.0
 10
17.6117001692
 20
13.6401422725
 30
0.0
 10
17.612993752
 20
13.6406242231
 30
0.0
 10
17.6150601409
 20
13.6414112981
 30
0.0
 10
17.617644272
 20
13.6423896767
 30
0.0
 10
17.621778241
 20
13.6439581518
 30
0.0
 10
17.6269459281
 20
13.6459175854
 30
0.0
 10
17.6321135128
 20
13.6478778234
 30
0.0
 10
17.6362476456
 20
13.6494450115
 30
0.0
 10
17.6388313672
 20
13.6504266075
 30
0.0
 10
17.6408985955
 20
13.6512070867
 30
0.0
 10
17.6421900415
 20
13.6517058285
 30
0.0
 10
17.6432245075
 20
13.6520797598
 30
0.0
 10
17.6442541938
 20
13.6525451858
 30
0.0
 10
17.6460539244
 20
13.6534021843
 30
0.0
 10
17.6486261265
 20
13.6546042919
 30
0.0
 10
17.6527410025
 20
13.6565400573
 30
0.0
 10
17.6578848193
 20
13.6589555187
 30
0.0
 10
17.6661148017
 20
13.6628226403
 30
0.0
 10
17.6722873164
 20
13.6657224453
 30
0.0
 10
17.6764023201
 20
13.6676557678
 30
0.0
  0
SPLINE
  5
3E3
100
AcDbEntity
  8
03___PRT_ALL_CURVES
100
AcDbSpline
 62
7
  6
BYLAYER
 70
0
 71
3
 72
140
 73
136
 74
0
 42
0.0000001
 43
0.0000001
 44
0.0000000001
 40
0.0
 40
0.0
 40
0.0
 40
0.0
 40
0.03125
 40
0.0625
 40
0.078125
 40
0.09375
 40
0.109375
 40
0.1171875
 40
0.125
 40
0.12890625
 40
0.1328125
 40
0.13671875
 40
0.138671875
 40
0.140625
 40
0.1416015625
 40
0.142578125
 40
0.14453125
 40
0.146484375
 40
0.1484375
 40
0.15234375
 40
0.15625
 40
0.1640625
 40
0.171875
 40
0.1875
 40
0.203125
 40
0.21875
 40
0.234375
 40
0.25
 40
0.2578125
 40
0.265625
 40
0.2734375
 40
0.27734375
 40
0.28125
 40
0.283203125
 40
0.2841796875
 40
0.28515625
 40
0.2856445312
 40
0.2861328125
 40
0.287109375
 40
0.2890625
 40
0.29296875
 40
0.296875
 40
0.3046875
 40
0.3125
 40
0.328125
 40
0.34375
 40
0.375
 40
0.390625
 40
0.3984375
 40
0.40625
 40
0.4140625
 40
0.41796875
 40
0.421875
 40
0.42578125
 40
0.427734375
 40
0.4287109375
 40
0.4296875
 40
0.431640625
 40
0.43359375
 40
0.4375
 40
0.44140625
 40
0.4453125
 40
0.453125
 40
0.4609375
 40
0.46875
 40
0.484375
 40
0.5
 40
0.515625
 40
0.53125
 40
0.5390625
 40
0.546875
 40
0.5546875
 40
0.55859375
 40
0.5625
 40
0.56640625
 40
0.568359375
 40
0.5703125
 40
0.5712890625
 40
0.572265625
 40
0.5732421875
 40
0.57421875
 40
0.578125
 40
0.58203125
 40
0.5859375
 40
0.59375
 40
0.6015625
 40
0.609375
 40
0.625
 40
0.65625
 40
0.671875
 40
0.6875
 40
0.6953125
 40
0.69921875
 40
0.703125
 40
0.70703125
 40
0.7109375
 40
0.712890625
 40
0.7138671875
 40
0.7143554688
 40
0.71484375
 40
0.7158203125
 40
0.716796875
 40
0.71875
 40
0.72265625
 40
0.7265625
 40
0.734375
 40
0.7421875
 40
0.75
 40
0.765625
 40
0.78125
 40
0.796875
 40
0.8125
 40
0.828125
 40
0.8359375
 40
0.84375
 40
0.84765625
 40
0.8515625
 40
0.853515625
 40
0.85546875
 40
0.857421875
 40
0.8583984375
 40
0.859375
 40
0.861328125
 40
0.86328125
 40
0.8671875
 40
0.87109375
 40
0.875
 40
0.8828125
 40
0.890625
 40
0.8984375
 40
0.90625
 40
0.921875
 40
0.9375
 40
0.96875
 40
1.0
 40
1.0
 40
1.0
 40
1.0
 10
17.6764023232
 20
13.6676557694
 30
0.0
 10
17.681056235
 20
13.6705659867
 30
0.0
 10
17.6903640587
 20
13.6763864213
 30
0.0
 10
17.7019988385
 20
13.6836619642
 30
0.0
 10
17.7113066617
 20
13.6894823991
 30
0.0
 10
17.7182875307
 20
13.6938477239
 30
0.0
 10
17.7241049168
 20
13.697485499
 30
0.0
 10
17.7287588361
 20
13.700395709
 30
0.0
 10
17.7316675119
 20
13.7022146133
 30
0.0
 10
17.7339945071
 20
13.703669684
 30
0.0
 10
17.7357396042
 20
13.7047611315
 30
0.0
 10
17.7371943264
 20
13.7056702112
 30
0.0
 10
17.7383570399
 20
13.7063985066
 30
0.0
 10
17.739086159
 20
13.7068513421
 30
0.0
 10
17.7396639048
 20
13.7072189903
 30
0.0
 10
17.7402619103
 20
13.7075669988
 30
0.0
 10
17.7408644058
 20
13.7081425829
 30
0.0
 10
17.7416213018
 20
13.7088004202
 30
0.0
 10
17.7426186553
 20
13.7096890151
 30
0.0
 10
17.7438694016
 20
13.7107958286
 30
0.0
 10
17.7458683299
 20
13.7125689265
 30
0.0
 10
17.7483677661
 20
13.7147845468
 30
0.0
 10
17.7523664304
 20
13.7183299596
 30
0.0
 10
17.7573649095
 20
13.7227615814
 30
0.0
 10
17.7633630209
 20
13.7280795893
 30
0.0
 10
17.7693611484
 20
13.7333975812
 30
0.0
 10
17.7753592751
 20
13.7387155754
 30
0.0
 10
17.7803577032
 20
13.7431472427
 30
0.0
 10
17.7843564721
 20
13.7466925623
 30
0.0
 10
17.7873554758
 20
13.7493515913
 30
0.0
 10
17.789854878
 20
13.7515673239
 30
0.0
 10
17.7918538784
 20
13.7533401901
 30
0.0
 10
17.7931044407
 20
13.7544475936
 30
0.0
 10
17.7939774556
 20
13.7552240544
 30
0.0
 10
17.7944800429
 20
13.7556657461
 30
0.0
 10
17.7947854221
 20
13.7559464994
 30
0.0
 10
17.795049766
 20
13.7561603318
 30
0.0
 10
17.7952409379
 20
13.7564134884
 30
0.0
 10
17.7955882424
 20
13.7568496581
 30
0.0
 10
17.7962737979
 20
13.7577268633
 30
0.0
 10
17.7972578865
 20
13.7589774748
 30
0.0
 10
17.7988297886
 20
13.760979872
 30
0.0
 10
17.80079557
 20
13.7634823828
 30
0.0
 10
17.8039403152
 20
13.7674866715
 30
0.0
 10
17.8078714193
 20
13.7724919394
 30
0.0
 10
17.8141610907
 20
13.7805004196
 30
0.0
 10
17.8204507813
 20
13.7885088879
 30
0.0
 10
17.8259542728
 20
13.7955162953
 30
0.0
 10
17.8290990944
 20
13.7995205381
 30
0.0
 10
17.8314577991
 20
13.8025236908
 30
0.0
 10
17.8334231042
 20
13.8050264118
 30
0.0
 10
17.8349959812
 20
13.8070283783
 30
0.0
 10
17.8361739095
 20
13.8085304279
 30
0.0
 10
17.8371610176
 20
13.8097803079
 30
0.0
 10
17.8378411973
 20
13.8106588112
 30
0.0
 10
17.8382467285
 20
13.8111552119
 30
0.0
 10
17.8384833542
 20
13.8117077354
 30
0.0
 10
17.8388369697
 20
13.8123791733
 30
0.0
 10
17.8393704314
 20
13.813464214
 30
0.0
 10
17.8400483484
 20
13.81481683
 30
0.0
 10
17.8408571019
 20
13.8164415465
 30
0.0
 10
17.8419370982
 20
13.8186072842
 30
0.0
 10
17.8432865245
 20
13.8213146454
 30
0.0
 10
17.8449060797
 20
13.8245633978
 30
0.0
 10
17.8470654014
 20
13.8288950961
 30
0.0
 10
17.8497645831
 20
13.8343097092
 30
0.0
 10
17.8530035875
 20
13.840807249
 30
0.0
 10
17.8562425992
 20
13.8473047878
 30
0.0
 10
17.8589417625
 20
13.8527194035
 30
0.0
 10
17.861101121
 20
13.8570510965
 30
0.0
 10
17.8627205641
 20
13.8602998649
 30
0.0
 10
17.8640703409
 20
13.8630071762
 30
0.0
 10
17.8651496221
 20
13.8651730157
 30
0.0
 10
17.8659605594
 20
13.8667974214
 30
0.0
 10
17.8666316442
 20
13.8681510096
 30
0.0
 10
17.8671790447
 20
13.869234067
 30
0.0
 10
17.8674971867
 20
13.8699105523
 30
0.0
 10
17.8678066272
 20
13.8704527153
 30
0.0
 10
17.8678883167
 20
13.8708566684
 30
0.0
 10
17.8679853041
 20
13.8712608931
 30
0.0
 10
17.8681714098
 20
13.8720692027
 30
0.0
 10
17.8684538728
 20
13.8732817258
 30
0.0
 10
17.8688286043
 20
13.8748983898
 30
0.0
 10
17.8693289049
 20
13.8770539535
 30
0.0
 10
17.8699540548
 20
13.879748404
 30
0.0
 10
17.8707043313
 20
13.8829817465
 30
0.0
 10
17.8717046663
 20
13.8872928691
 30
0.0
 10
17.8734552678
 20
13.8948373339
 30
0.0
 10
17.875455952
 20
13.9034595798
 30
0.0
 10
17.8774566286
 20
13.9120818242
 30
0.0
 10
17.8787070732
 20
13.9174707302
 30
0.0
 10
17.8795823404
 20
13.921242958
 30
0.0
 10
17.880082562
 20
13.9233985267
 30
0.0
 10
17.880457534
 20
13.9250151751
 30
0.0
 10
17.8808332482
 20
13.9266319313
 30
0.0
 10
17.8811440314
 20
13.9279788921
 30
0.0
 10
17.8813661101
 20
13.9289224232
 30
0.0
 10
17.8814709606
 20
13.9293932891
 30
0.0
 10
17.8815408375
 20
13.9296638035
 30
0.0
 10
17.8815106915
 20
13.9299197787
 30
0.0
 10
17.8815072523
 20
13.9302447252
 30
0.0
 10
17.8814826385
 20
13.9307618617
 30
0.0
 10
17.8814484675
 20
13.9316681447
 30
0.0
 10
17.8813950065
 20
13.9329621594
 30
0.0
 10
17.8813120651
 20
13.9350329604
 30
0.0
 10
17.8812074976
 20
13.9376213322
 30
0.0
 10
17.8810823979
 20
13.9407274338
 30
0.0
 10
17.8809154652
 20
13.9448688832
 30
0.0
 10
17.8807068445
 20
13.9500457014
 30
0.0
 10
17.8804564824
 20
13.9562578811
 30
0.0
 10
17.8802061172
 20
13.9624700593
 30
0.0
 10
17.8799557816
 20
13.9686822457
 30
0.0
 10
17.8797470725
 20
13.9738590416
 30
0.0
 10
17.879580321
 20
13.9780005367
 30
0.0
 10
17.8794756098
 20
13.9805888384
 30
0.0
 10
17.8793929667
 20
13.9826597837
 30
0.0
 10
17.8793387458
 20
13.9839534311
 30
0.0
 10
17.879301253
 20
13.9849899372
 30
0.0
 10
17.8792570232
 20
13.9857629681
 30
0.0
 10
17.8792714141
 20
13.9864209946
 30
0.0
 10
17.8790724793
 20
13.9868906077
 30
0.0
 10
17.8789102969
 20
13.9873701418
 30
0.0
 10
17.8786949849
 20
13.9879661624
 30
0.0
 10
17.8783575188
 20
13.988921694
 30
0.0
 10
17.8779332732
 20
13.990115457
 30
0.0
 10
17.8774252114
 20
13.9915482515
 30
0.0
 10
17.8767474348
 20
13.9934585467
 30
0.0
 10
17.8759003379
 20
13.9958464492
 30
0.0
 10
17.8748837685
 20
13.9987119179
 30
0.0
 10
17.8738672133
 20
14.0015773904
 30
0.0
 10
17.8725118014
 20
14.005398019
 30
0.0
 10
17.8708175382
 20
14.0101738052
 30
0.0
 10
17.8681067162
 20
14.017815063
 30
0.0
 10
17.864718189
 20
14.0273666353
 30
0.0
 10
17.8620073672
 20
14.0350078931
 30
0.0
 10
17.8606519562
 20
14.038828522
 30
0.0
  0
SPLINE
  5
3E4
100
AcDbEntity
  8
03___PRT_ALL_CURVES
100
AcDbSpline
 62
7
  6
BYLAYER
 70
0
 71
3
 72
101
 73
97
 74
0
 42
0.0000001
 43
0.0000001
 44
0.0000000001
 40
0.0
 40
0.0
 40
0.0
 40
0.0
 40
0.0625
 40
0.09375
 40
0.109375
 40
0.125
 40
0.140625
 40
0.1484375
 40
0.15625
 40
0.16015625
 40
0.1640625
 40
0.166015625
 40
0.1669921875
 40
0.16796875
 40
0.169921875
 40
0.171875
 40
0.1796875
 40
0.1875
 40
0.1953125
 40
0.203125
 40
0.21875
 40
0.25
 40
0.28125
 40
0.296875
 40
0.3046875
 40
0.3125
 40
0.3203125
 40
0.328125
 40
0.330078125
 40
0.33203125
 40
0.3330078125
 40
0.333984375
 40
0.3359375
 40
0.33984375
 40
0.34375
 40
0.3515625
 40
0.359375
 40
0.375
 40
0.390625
 40
0.40625
 40
0.421875
 40
0.4375
 40
0.453125
 40
0.46875
 40
0.4765625
 40
0.484375
 40
0.4921875
 40
0.49609375
 40
0.498046875
 40
0.5
 40
0.501953125
 40
0.50390625
 40
0.5078125
 40
0.515625
 40
0.5234375
 40
0.53125
 40
0.546875
 40
0.5625
 40
0.578125
 40
0.59375
 40
0.609375
 40
0.625
 40
0.640625
 40
0.6484375
 40
0.65625
 40
0.66015625
 40
0.6640625
 40
0.666015625
 40
0.66796875
 40
0.669921875
 40
0.671875
 40
0.6796875
 40
0.6875
 40
0.6953125
 40
0.703125
 40
0.71875
 40
0.75
 40
0.78125
 40
0.796875
 40
0.8046875
 40
0.8125
 40
0.8203125
 40
0.828125
 40
0.830078125
 40
0.83203125
 40
0.833984375
 40
0.8359375
 40
0.83984375
 40
0.84375
 40
0.8515625
 40
0.859375
 40
0.875
 40
0.890625
 40
0.90625
 40
0.9375
 40
1.0
 40
1.0
 40
1.0
 40
1.0
 10
17.8606519585
 20
14.0388285179
 30
0.0
 10
17.8579014683
 20
14.0427957737
 30
0.0
 10
17.8537757292
 20
14.0487466548
 30
0.0
 10
17.8489623803
 20
14.0556893584
 30
0.0
 10
17.846211876
 20
14.0596566048
 30
0.0
 10
17.8441490515
 20
14.0626320756
 30
0.0
 10
17.8424298603
 20
14.0651115199
 30
0.0
 10
17.8410548902
 20
14.0670953326
 30
0.0
 10
17.8401946624
 20
14.0683346296
 30
0.0
 10
17.8395084759
 20
14.0693274092
 30
0.0
 10
17.8390750556
 20
14.0699448344
 30
0.0
 10
17.8387807877
 20
14.0703831689
 30
0.0
 10
17.8385983557
 20
14.0706240439
 30
0.0
 10
17.8383621425
 20
14.0708287537
 30
0.0
 10
17.8380852586
 20
14.0710970023
 30
0.0
 10
17.8374056075
 20
14.071730625
 30
0.0
 10
17.8363924855
 20
14.0726853322
 30
0.0
 10
17.8350380241
 20
14.0739558328
 30
0.0
 10
17.8336845343
 20
14.0752269868
 30
0.0
 10
17.8318795422
 20
14.0769216307
 30
0.0
 10
17.828720965
 20
14.0798873646
 30
0.0
 10
17.8242086217
 20
14.0841240654
 30
0.0
 10
17.8196963359
 20
14.0883608099
 30
0.0
 10
17.8165376782
 20
14.0913264826
 30
0.0
 10
17.8147328125
 20
14.0930212226
 30
0.0
 10
17.8133789352
 20
14.0942920819
 30
0.0
 10
17.812025929
 20
14.095563689
 30
0.0
 10
17.8110087321
 20
14.0965152979
 30
0.0
 10
17.8103343991
 20
14.0971529641
 30
0.0
 10
17.8100477749
 20
14.0974138069
 30
0.0
 10
17.8098316607
 20
14.0976337985
 30
0.0
 10
17.8095673279
 20
14.0978124019
 30
0.0
 10
17.8090823422
 20
14.0981057277
 30
0.0
 10
17.8084011944
 20
14.0985347979
 30
0.0
 10
17.8073048255
 20
14.0992157031
 30
0.0
 10
17.8059366012
 20
14.1000687544
 30
0.0
 10
17.8037461921
 20
14.1014325636
 30
0.0
 10
17.8010086098
 20
14.1031376933
 30
0.0
 10
17.7977233268
 20
14.1051836907
 30
0.0
 10
17.7944380942
 20
14.1072297316
 30
0.0
 10
17.7911528444
 20
14.109275757
 30
0.0
 10
17.7878676127
 20
14.1113218012
 30
0.0
 10
17.7845823262
 20
14.1133677855
 30
0.0
 10
17.7818447547
 20
14.1150729562
 30
0.0
 10
17.7796543236
 20
14.1164366817
 30
0.0
 10
17.7780125217
 20
14.1174605988
 30
0.0
 10
17.7766411044
 20
14.118310291
 30
0.0
 10
17.7756874884
 20
14.1189120856
 30
0.0
 10
17.7751326093
 20
14.1192450226
 30
0.0
 10
17.7747444952
 20
14.1195255594
 30
0.0
 10
17.7742491781
 20
14.1196882326
 30
0.0
 10
17.7736261489
 20
14.1199462423
 30
0.0
 10
17.7725184254
 20
14.1203786044
 30
0.0
 10
17.7709450719
 20
14.1210062789
 30
0.0
 10
17.7690531488
 20
14.1217552018
 30
0.0
 10
17.7665319467
 20
14.122755263
 30
0.0
 10
17.7633799767
 20
14.1240048256
 30
0.0
 10
17.7595978134
 20
14.1255045216
 30
0.0
 10
17.7558155947
 20
14.127004156
 30
0.0
 10
17.7520333971
 20
14.1285038161
 30
0.0
 10
17.7482511703
 20
14.1300034352
 30
0.0
 10
17.7444690394
 20
14.1315031925
 30
0.0
 10
17.7413169684
 20
14.1327525639
 30
0.0
 10
17.7387959722
 20
14.1337530151
 30
0.0
 10
17.7372188458
 20
14.1343761251
 30
0.0
 10
17.7359605884
 20
14.1348795873
 30
0.0
 10
17.7351663201
 20
14.1351829016
 30
0.0
 10
17.7345489025
 20
14.1354515485
 30
0.0
 10
17.7340365627
 20
14.135581857
 30
0.0
 10
17.7335104147
 20
14.1356922204
 30
0.0
 10
17.7324652218
 20
14.135923207
 30
0.0
 10
17.730894449
 20
14.1362653777
 30
0.0
 10
17.7288017904
 20
14.1367240683
 30
0.0
 10
17.7267086757
 20
14.1371821
 30
0.0
 10
17.7239180152
 20
14.1377930389
 30
0.0
 10
17.7190342849
 20
14.1388620741
 30
0.0
 10
17.7120575693
 20
14.140389329
 30
0.0
 10
17.7050808278
 20
14.141916542
 30
0.0
 10
17.7001971336
 20
14.1429856358
 30
0.0
 10
17.6974064164
 20
14.1435964826
 30
0.0
 10
17.6953134757
 20
14.1440547967
 30
0.0
 10
17.6932201638
 20
14.1445124266
 30
0.0
 10
17.6916512206
 20
14.1448575676
 30
0.0
 10
17.6906036399
 20
14.1450846777
 30
0.0
 10
17.6900827398
 20
14.145203561
 30
0.0
 10
17.6895506023
 20
14.1453017282
 30
0.0
 10
17.6887876165
 20
14.1453340462
 30
0.0
 10
17.687852192
 20
14.1454081944
 30
0.0
 10
17.6863452815
 20
14.1455079701
 30
0.0
 10
17.6844651466
 20
14.1456391479
 30
0.0
 10
17.6814549728
 20
14.145845423
 30
0.0
 10
17.6776929274
 20
14.1461045051
 30
0.0
 10
17.6731781853
 20
14.1464148737
 30
0.0
 10
17.6671586296
 20
14.1468288834
 30
0.0
 10
17.6566243599
 20
14.1475533137
 30
0.0
 10
17.6475950021
 20
14.1481742837
 30
0.0
 10
17.6415754266
 20
14.148588257
 30
0.0
  0
SPLINE
  5
3E5
100
AcDbEntity
  8
0
100
AcDbSpline
 62
7
  6
BYLAYER
 70
0
 71
3
 72
13
 73
9
 74
0
 42
0.0000001
 43
0.0000001
 44
0.0000000001
 40
0.0
 40
0.0
 40
0.0
 40
0.0
 40
0.2875114517
 40
0.544586263
 40
0.6639765816
 40
0.7787026349
 40
0.8901854639
 40
1.0
 40
1.0
 40
1.0
 40
1.0
 10
16.8280646754
 20
13.3696281576
 30
0.0
 10
16.8182055264
 20
13.3809272536
 30
0.0
 10
16.798100373
 20
13.401163394
 30
0.0
 10
16.7695939481
 20
13.4212571605
 30
0.0
 10
16.7464517885
 20
13.4323685344
 30
0.0
 10
16.7293465823
 20
13.438201309
 30
0.0
 10
16.7121281173
 20
13.44171502
 30
0.0
 10
16.7005710081
 20
13.4424986382
 30
0.0
 10
16.6948434073
 20
13.4424974978
 30
0.0
  0
SPLINE
  5
3E6
100
AcDbEntity
  8
0
100
AcDbSpline
 62
7
  6
BYLAYER
 70
0
 71
3
 72
9
 73
5
 74
0
 42
0.0000001
 43
0.0000001
 44
0.0000000001
 40
0.0
 40
0.0
 40
0.0
 40
0.0
 40
0.2357826308
 40
1.0
 40
1.0
 40
1.0
 40
1.0
 10
16.544922287
 20
11.6812899137
 30
0.0
 10
16.5440644775
 20
11.6817623871
 30
0.0
 10
16.5402759138
 20
11.6834931041
 30
0.0
 10
16.5360422805
 20
11.6841297208
 30
0.0
 10
16.5328681128
 20
11.6841297208
 30
0.0
  0
SPLINE
  5
3E7
100
AcDbEntity
  8
0
100
AcDbSpline
 62
7
  6
BYLAYER
 70
0
 71
3
 72
11
 73
7
 74
0
 42
0.0000001
 43
0.0000001
 44
0.0000000001
 40
0.0
 40
0.0
 40
0.0
 40
0.0
 40
0.2268630568
 40
0.4649901318
 40
0.7222804645
 40
1.0
 40
1.0
 40
1.0
 40
1.0
 10
16.4915412494
 20
11.6654972167
 30
0.0
 10
16.4922941864
 20
11.6639690087
 30
0.0
 10
16.494392862
 20
11.6610823768
 30
0.0
 10
16.4988859452
 20
11.6579019606
 30
0.0
 10
16.5044281065
 20
11.655971202
 30
0.0
 10
16.5084630288
 20
11.6555690306
 30
0.0
 10
16.5105485582
 20
11.6555690306
 30
0.0
  0
SPLINE
  5
3E8
100
AcDbEntity
  8
0
100
AcDbSpline
 62
7
  6
BYLAYER
 70
0
 71
3
 72
11
 73
7
 74
0
 42
0.0000001
 43
0.0000001
 44
0.0000000001
 40
0.0
 40
0.0
 40
0.0
 40
0.0
 40
0.2780893566
 40
0.5372777288
 40
0.7772353346
 40
1.0
 40
1.0
 40
1.0
 40
1.0
 10
14.6804874051
 20
13.0624806794
 30
0.0
 10
14.6875841558
 20
13.0854457732
 30
0.0
 10
14.7027932516
 20
13.1293757479
 30
0.0
 10
14.7298476843
 20
13.1909640226
 30
0.0
 10
14.7604601676
 20
13.2454614053
 30
0.0
 10
14.7842050688
 20
13.2778334419
 30
0.0
 10
14.7967853152
 20
13.2924100891
 30
0.0
  0
SPLINE
  5
3E9
100
AcDbEntity
  8
0
100
AcDbSpline
 62
7
  6
BYLAYER
 70
0
 71
3
 72
23
 73
19
 74
0
 42
0.0000001
 43
0.0000001
 44
0.0000000001
 40
0.0
 40
0.0
 40
0.0
 40
0.0
 40
0.0456478443
 40
0.0946034424
 40
0.1472208578
 40
0.2035660975
 40
0.2634729444
 40
0.3265941539
 40
0.3924488424
 40
0.4604585041
 40
0.5299738325
 40
0.6002988052
 40
0.6707137086
 40
0.7404982118
 40
0.8089484216
 40
0.8753922506
 40
0.9392629053
 40
1.0
 40
1.0
 40
1.0
 40
1.0
 10
14.7970104211
 20
11.9137500861
 30
0.0
 10
14.7851657216
 20
11.9274440874
 30
0.0
 10
14.762735163
 20
11.9576861983
 30
0.0
 10
14.733552918
 20
12.0083733968
 30
0.0
 10
14.7075285711
 20
12.0654360027
 30
0.0
 10
14.6845938301
 20
12.1284291719
 30
0.0
 10
14.6648076272
 20
12.1968189107
 30
0.0
 10
14.6482849315
 20
12.2699333713
 30
0.0
 10
14.6351564338
 20
12.3469900038
 30
0.0
 10
14.6255451159
 20
12.4271153835
 30
0.0
 10
14.6195499821
 20
12.509367997
 30
0.0
 10
14.6172350555
 20
12.5927596516
 30
0.0
 10
14.6186246909
 20
12.6762784888
 30
0.0
 10
14.6237042636
 20
12.7589102279
 30
0.0
 10
14.6324204227
 20
12.8396552148
 30
0.0
 10
14.6446787324
 20
12.9175693291
 30
0.0
 10
14.6603681002
 20
12.9917423231
 30
0.0
 10
14.6733746278
 20
13.0394637235
 30
0.0
 10
14.6804874051
 20
13.0624806794
 30
0.0
  0
SPLINE
  5
3EA
100
AcDbEntity
  8
0
100
AcDbSpline
 62
7
  6
BYLAYER
 70
0
 71
3
 72
11
 73
7
 74
0
 42
0.0000001
 43
0.0000001
 44
0.0000000001
 40
0.0
 40
0.0
 40
0.0
 40
0.0
 40
0.2755832189
 40
0.5300839468
 40
0.7691497117
 40
1.0
 40
1.0
 40
1.0
 40
1.0
 10
16.9956608639
 20
13.2993330942
 30
0.0
 10
16.9886497636
 20
13.3053837488
 30
0.0
 10
16.9743995335
 20
13.3161907333
 30
0.0
 10
16.9515067094
 20
13.3284521124
 30
0.0
 10
16.928178415
 20
13.3359051297
 30
0.0
 10
16.9123415988
 20
13.3375846173
 30
0.0
 10
16.9045838612
 20
13.3375864735
 30
0.0
  0
SPLINE
  5
3EB
100
AcDbEntity
  8
0
100
AcDbSpline
 62
7
  6
BYLAYER
 70
0
 71
3
 72
11
 73
7
 74
0
 42
0.0000001
 43
0.0000001
 44
0.0000000001
 40
0.0
 40
0.0
 40
0.0
 40
0.0
 40
0.2290607546
 40
0.4671608765
 40
0.7221558967
 40
1.0
 40
1.0
 40
1.0
 40
1.0
 10
16.9045484897
 20
11.8688377216
 30
0.0
 10
16.9127410453
 20
11.8688357492
 30
0.0
 10
16.9295027736
 20
11.8707127447
 30
0.0
 10
16.9541346167
 20
11.8790293113
 30
0.0
 10
16.9782436277
 20
11.8926955283
 30
0.0
 10
16.9931615205
 20
11.9046810648
 30
0.0
 10
17.0004956186
 20
11.9113864075
 30
0.0
  0
SPLINE
  5
3EC
100
AcDbEntity
  8
0
100
AcDbSpline
 62
7
  6
BYLAYER
 70
0
 71
3
 72
11
 73
7
 74
0
 42
0.0000001
 43
0.0000001
 44
0.0000000001
 40
0.0
 40
0.0
 40
0.0
 40
0.0
 40
0.2762229654
 40
0.5308359272
 40
0.7696349914
 40
1.0
 40
1.0
 40
1.0
 40
1.0
 10
16.8781096365
 20
11.8685487843
 30
0.0
 10
16.8706013873
 20
11.8619625565
 30
0.0
 10
16.8553381556
 20
11.8501975134
 30
0.0
 10
16.8307767991
 20
11.8368312426
 30
0.0
 10
16.8057308255
 20
11.8287067596
 30
0.0
 10
16.7887168483
 20
11.826872493
 30
0.0
 10
16.7803873667
 20
11.8268730435
 30
0.0
  0
SPLINE
  5
3ED
100
AcDbEntity
  8
0
100
AcDbSpline
 62
7
  6
BYLAYER
 70
0
 71
3
 72
11
 73
7
 74
0
 42
0.0000001
 43
0.0000001
 44
0.0000000001
 40
0.0
 40
0.0
 40
0.0
 40
0.0
 40
0.2304318828
 40
0.4692700925
 40
0.7238810361
 40
1.0
 40
1.0
 40
1.0
 40
1.0
 10
16.7803873667
 20
13.3795506536
 30
0.0
 10
16.7886975117
 20
13.3795500104
 30
0.0
 10
16.805671016
 20
13.377728482
 30
0.0
 10
16.8306595681
 20
13.3696383694
 30
0.0
 10
16.8551681061
 20
13.3563341539
 30
0.0
 10
16.8704015697
 20
13.3446192508
 30
0.0
 10
16.8778953176
 20
13.3380617355
 30
0.0
  0
SPLINE
  5
3EE
100
AcDbEntity
  8
0
100
AcDbSpline
 62
7
  6
BYLAYER
 70
0
 71
3
 72
12
 73
8
 74
0
 42
0.0000001
 43
0.0000001
 44
0.0000000001
 40
0.0
 40
0.0
 40
0.0
 40
0.0
 40
0.1127233571
 40
0.2267560842
 40
0.4633882097
 40
0.7190828037
 40
1.0
 40
1.0
 40
1.0
 40
1.0
 10
16.6948503438
 20
11.7639280066
 30
0.0
 10
16.6998619079
 20
11.7639274053
 30
0.0
 10
16.7099539249
 20
11.7645245191
 30
0.0
 10
16.7302751479
 20
11.7681419275
 30
0.0
 10
16.7558295738
 20
11.7774310304
 30
0.0
 10
16.785302686
 20
11.7954706007
 30
0.0
 10
16.8033973864
 20
11.8111797181
 30
0.0
 10
16.8122792945
 20
11.8199600392
 30
0.0
  0
SPLINE
  5
3EF
100
AcDbEntity
  8
0
100
AcDbSpline
 62
7
  6
BYLAYER
 70
0
 71
3
 72
29
 73
25
 74
0
 42
0.0000001
 43
0.0000001
 44
0.0000000001
 40
0.0
 40
0.0
 40
0.0
 40
0.0
 40
0.0154464964
 40
0.0312878521
 40
0.0478835156
 40
0.0655341841
 40
0.0844731483
 40
0.1048664737
 40
0.1268253944
 40
0.1504097259
 40
0.1756437414
 40
0.2025160764
 40
0.2309919396
 40
0.2610129026
 40
0.3253578531
 40
0.3947857435
 40
0.468333002
 40
0.5449058524
 40
0.6233219147
 40
0.7023471776
 40
0.7807308593
 40
0.8572397146
 40
0.9306930846
 40
1.0
 40
1.0
 40
1.0
 40
1.0
 10
14.9834861219
 20
11.7639280066
 30
0.0
 10
14.9760144309
 20
11.7639289032
 30
0.0
 10
14.9608480289
 20
11.7652765595
 30
0.0
 10
14.938375613
 20
11.7712954166
 30
0.0
 10
14.9161824738
 20
11.7812467772
 30
0.0
 10
14.8943799518
 20
11.7950457282
 30
0.0
 10
14.8730529826
 20
11.8126037424
 30
0.0
 10
14.8522785866
 20
11.8338237024
 30
0.0
 10
14.8321435559
 20
11.858609326
 30
0.0
 10
14.8127231275
 20
11.8868422703
 30
0.0
 10
14.794107789
 20
11.9183992482
 30
0.0
 10
14.7763732891
 20
11.953133688
 30
0.0
 10
14.7596039941
 20
11.9908897352
 30
0.0
 10
14.7381353046
 20
12.0463166764
 30
0.0
 10
14.7144849273
 20
12.1220341148
 30
0.0
 10
14.6916370838
 20
12.2197550485
 30
0.0
 10
14.674132505
 20
12.3245689922
 30
0.0
 10
14.6623014716
 20
12.4345385947
 30
0.0
 10
14.6563687785
 20
12.5476336813
 30
0.0
 10
14.6564471806
 20
12.6617589455
 30
0.0
 10
14.6625351496
 20
12.7747986747
 30
0.0
 10
14.6745176216
 20
12.8846613416
 30
0.0
 10
14.6921651426
 20
12.9893080407
 30
0.0
 10
14.7080202995
 20
13.0565862323
 30
0.0
 10
14.7169489635
 20
13.088900123
 30
0.0
  0
SPLINE
  5
3F0
100
AcDbEntity
  8
0
100
AcDbSpline
 62
7
  6
BYLAYER
 70
0
 71
3
 72
19
 73
15
 74
0
 42
0.0000001
 43
0.0000001
 44
0.0000000001
 40
0.0
 40
0.0
 40
0.0
 40
0.0
 40
0.1739433092
 40
0.2559106939
 40
0.3343023759
 40
0.4798179144
 40
0.6099101841
 40
0.7247719976
 40
0.7769133757
 40
0.8258686826
 40
0.872058917
 40
0.9160228083
 40
0.9584174029
 40
1.0
 40
1.0
 40
1.0
 40
1.0
 10
14.7169489635
 20
13.088900123
 30
0.0
 10
14.7241998995
 20
13.1151421173
 30
0.0
 10
14.7360714988
 20
13.1534421643
 30
0.0
 10
14.7543912119
 20
13.2024677751
 30
0.0
 10
14.7729741353
 20
13.2465993274
 30
0.0
 10
14.797791861
 20
13.2962457487
 30
0.0
 10
14.8309710436
 20
13.3477315971
 30
0.0
 10
14.8614481874
 20
13.383149434
 30
0.0
 10
14.8868697309
 20
13.405502594
 30
0.0
 10
14.9056976446
 20
13.4188859259
 30
0.0
 10
14.9248385126
 20
13.4293780124
 30
0.0
 10
14.9442336128
 20
13.4369259066
 30
0.0
 10
14.9638057246
 20
13.4414759631
 30
0.0
 10
14.9769707447
 20
13.4424962018
 30
0.0
 10
14.9834791854
 20
13.4424974978
 30
0.0
  0
SPLINE
  5
3F1
100
AcDbEntity
  8
0
100
AcDbSpline
 62
7
  6
BYLAYER
 70
0
 71
3
 72
13
 73
9
 74
0
 42
0.0000001
 43
0.0000001
 44
0.0000000001
 40
0.0
 40
0.0
 40
0.0
 40
0.0
 40
0.2565793543
 40
0.3900097224
 40
0.5228713246
 40
0.6524276705
 40
0.7762391507
 40
1.0
 40
1.0
 40
1.0
 40
1.0
 10
16.5328681128
 20
11.6841297208
 30
0.0
 10
16.5289247827
 20
11.6841297208
 30
0.0
 10
16.5228910584
 20
11.6830076385
 30
0.0
 10
16.515505488
 20
11.6797989467
 30
0.0
 10
16.5103356436
 20
11.6765438821
 30
0.0
 10
16.5058449443
 20
11.672615157
 30
0.0
 10
16.5011998843
 20
11.6669259713
 30
0.0
 10
16.4989708573
 20
11.6618335712
 30
0.0
 10
16.4984478047
 20
11.6584346339
 30
0.0
  0
SPLINE
  5
3F2
100
AcDbEntity
  8
0
100
AcDbSpline
 62
7
  6
BYLAYER
 70
0
 71
3
 72
14
 73
10
 74
0
 42
0.0000001
 43
0.0000001
 44
0.0000000001
 40
0.0
 40
0.0
 40
0.0
 40
0.0
 40
0.269993807
 40
0.4094466673
 40
0.5451394958
 40
0.6729569133
 40
0.7905704427
 40
0.8983629651
 40
1.0
 40
1.0
 40
1.0
 40
1.0
 10
16.5105485582
 20
11.6555690306
 30
0.0
 10
16.5155973017
 20
11.6555690306
 30
0.0
 10
16.5233287165
 20
11.6573974476
 30
0.0
 10
16.5322334576
 20
11.662426554
 30
0.0
 10
16.5379932149
 20
11.6673748799
 30
0.0
 10
16.5423161989
 20
11.6731182204
 30
0.0
 10
16.5448930417
 20
11.6792905436
 30
0.0
 10
16.5454854345
 20
11.6854840603
 30
0.0
 10
16.544435689
 20
11.6893689392
 30
0.0
 10
16.5435957139
 20
11.6910738053
 30
0.0
  0
SPLINE
  5
3F3
100
AcDbEntity
  8
0
100
AcDbSpline
 62
7
  6
BYLAYER
 70
0
 71
3
 72
10
 73
6
 74
0
 42
0.0000001
 43
0.0000001
 44
0.0000000001
 40
0.0
 40
0.0
 40
0.0
 40
0.0
 40
0.497134488
 40
0.75316841
 40
1.0
 40
1.0
 40
1.0
 40
1.0
 10
15.9519749179
 20
12.1007685877
 30
0.0
 10
15.9586344455
 20
12.1007685877
 30
0.0
 10
15.9688273087
 20
12.0980175741
 30
0.0
 10
15.9801623792
 20
12.0908113439
 30
0.0
 10
15.9850505644
 20
12.0860771634
 30
0.0
 10
15.9871459055
 20
12.0835193175
 30
0.0
  0
LINE
  5
3F4
100
AcDbEntity
  8
0
100
AcDbLine
 62
7
  6
BYLAYER
 10
15.9871459055
 20
12.0835193175
 11
15.9899196033
 21
12.079708927
  0
SPLINE
  5
3F5
100
AcDbEntity
  8
0
100
AcDbSpline
 62
7
  6
BYLAYER
 70
0
 71
3
 72
40
 73
36
 74
0
 42
0.0000001
 43
0.0000001
 44
0.0000000001
 40
0.0
 40
0.0
 40
0.0
 40
0.0
 40
0.0083663528
 40
0.0168441758
 40
0.0255395939
 40
0.0345493135
 40
0.0538106317
 40
0.0751643731
 40
0.098915231
 40
0.1252065854
 40
0.1540604361
 40
0.1854050908
 40
0.2191007982
 40
0.2549532018
 40
0.292723931
 40
0.3321420246
 40
0.3729084931
 40
0.4147036723
 40
0.5000164433
 40
0.5853290413
 40
0.6271241263
 40
0.6678904512
 40
0.7073079693
 40
0.7450786544
 40
0.7809305124
 40
0.814625591
 40
0.8459702036
 40
0.87482312
 40
0.9011140451
 40
0.9248647606
 40
0.9462175735
 40
0.9654787098
 40
0.9831557154
 40
0.9916335778
 40
1.0
 40
1.0
 40
1.0
 40
1.0
 10
16.6948434073
 20
13.4424974978
 30
0.0
 10
16.6894872364
 20
13.4424964313
 30
0.0
 10
16.6786916383
 20
13.4418091127
 30
0.0
 10
16.6625924836
 20
13.4387380546
 30
0.0
 10
16.6465845913
 20
13.4336347983
 30
0.0
 10
16.624950827
 20
13.4239341012
 30
0.0
 10
16.5982102087
 20
13.4063849913
 30
0.0
 10
16.5679949132
 20
13.378145938
 30
0.0
 10
16.5390988165
 20
13.3425800261
 30
0.0
 10
16.5117457963
 20
13.3000184984
 30
0.0
 10
16.4861585127
 20
13.250841612
 30
0.0
 10
16.4625621009
 20
13.1955008184
 30
0.0
 10
16.441177138
 20
13.1345087041
 30
0.0
 10
16.4222080837
 20
13.0684382163
 30
0.0
 10
16.4058337159
 20
12.9979158498
 30
0.0
 10
16.3922153208
 20
12.9236127967
 30
0.0
 10
16.3814833809
 20
12.8462377794
 30
0.0
 10
16.3710939939
 20
12.7392422119
 30
0.0
 10
16.3659686304
 20
12.6032039869
 30
0.0
 10
16.3710957311
 20
12.4671659382
 30
0.0
 10
16.3814849808
 20
12.3601706303
 30
0.0
 10
16.3922173726
 20
12.282796173
 30
0.0
 10
16.4058374655
 20
12.2084939492
 30
0.0
 10
16.4222109532
 20
12.1379721525
 30
0.0
 10
16.4411812348
 20
12.071902777
 30
0.0
 10
16.4625671948
 20
12.0109119191
 30
0.0
 10
16.4861625276
 20
11.9555716742
 30
0.0
 10
16.5117513679
 20
11.9063968243
 30
0.0
 10
16.539105735
 20
11.8638364259
 30
0.0
 10
16.5679965177
 20
11.8282713243
 30
0.0
 10
16.5982276395
 20
11.8000337477
 30
0.0
 10
16.6295942095
 20
11.779426802
 30
0.0
 10
16.6569401353
 20
11.7687589591
 30
0.0
 10
16.6786977433
 20
11.764614567
 30
0.0
 10
16.6894941285
 20
11.7639286493
 30
0.0
 10
16.6948503438
 20
11.7639280066
 30
0.0
  0
SPLINE
  5
3F6
100
AcDbEntity
  8
0
100
AcDbSpline
 62
7
  6
BYLAYER
 70
0
 71
3
 72
37
 73
33
 74
0
 42
0.0000001
 43
0.0000001
 44
0.0000000001
 40
0.0
 40
0.0
 40
0.0
 40
0.0
 40
0.0083667926
 40
0.0168450065
 40
0.0345218288
 40
0.0537830842
 40
0.0751356451
 40
0.0988855569
 40
0.1251769365
 40
0.1540297768
 40
0.1853748006
 40
0.2190711608
 40
0.2549238999
 40
0.2926964239
 40
0.3321160339
 40
0.4146648628
 40
0.4999834863
 40
0.5853030434
 40
0.6678542916
 40
0.707276092
 40
0.7450503171
 40
0.780906153
 40
0.8146052177
 40
0.8459529471
 40
0.8748097329
 40
0.9011036666
 40
0.9248569506
 40
0.9462127073
 40
0.9654757844
 40
0.9831545262
 40
0.9916330006
 40
1.0
 40
1.0
 40
1.0
 40
1.0
 10
16.9045838612
 20
13.3375864735
 30
0.0
 10
16.8998971955
 20
13.3375875948
 30
0.0
 10
16.8904501224
 20
13.3369895998
 30
0.0
 10
16.8714129326
 20
13.333363654
 30
0.0
 10
16.8474827787
 20
13.3240393523
 30
0.0
 10
16.8200363852
 20
13.306011358
 30
0.0
 10
16.793583075
 20
13.2813084644
 30
0.0
 10
16.7683000792
 20
13.2501946542
 30
0.0
 10
16.7443651388
 20
13.2129570038
 30
0.0
 10
16.7219721063
 20
13.169932739
 30
0.0
 10
16.7013238119
 20
13.1215127802
 30
0.0
 10
16.6826104075
 20
13.0681474059
 30
0.0
 10
16.6660082745
 20
13.0103385265
 30
0.0
 10
16.6516792343
 20
12.9486322114
 30
0.0
 10
16.635542936
 20
12.8605930004
 30
0.0
 10
16.6221416942
 20
12.7451112813
 30
0.0
 10
16.6167826781
 20
12.6032570358
 30
0.0
 10
16.6221340331
 20
12.4614010407
 30
0.0
 10
16.6355313036
 20
12.3459158263
 30
0.0
 10
16.6516617362
 20
12.2578719144
 30
0.0
 10
16.6659899235
 20
12.1961614035
 30
0.0
 10
16.6825872689
 20
12.1383468162
 30
0.0
 10
16.7012988164
 20
12.0849756599
 30
0.0
 10
16.7219459362
 20
12.0365496344
 30
0.0
 10
16.7443343828
 20
11.9935171273
 30
0.0
 10
16.7682699539
 20
11.9562732315
 30
0.0
 10
16.7935504524
 20
11.925151258
 30
0.0
 10
16.8200012969
 20
11.9004381965
 30
0.0
 10
16.8474487785
 20
11.8824059288
 30
0.0
 10
16.871376471
 20
11.8730685185
 30
0.0
 10
16.8904148061
 20
11.8694409306
 30
0.0
 10
16.8998617081
 20
11.8688388499
 30
0.0
 10
16.9045484897
 20
11.8688377216
 30
0.0
  0
SPLINE
  5
3F7
100
AcDbEntity
  8
0
100
AcDbSpline
 62
7
  6
BYLAYER
 70
0
 71
3
 72
11
 73
7
 74
0
 42
0.0000001
 43
0.0000001
 44
0.0000000001
 40
0.0
 40
0.0
 40
0.0
 40
0.0
 40
0.2930274114
 40
0.5510965715
 40
0.7821447683
 40
1.0
 40
1.0
 40
1.0
 40
1.0
 10
16.1026261503
 20
11.8498283548
 30
0.0
 10
16.1031186445
 20
11.8492074385
 30
0.0
 10
16.1039666424
 20
11.8479721917
 30
0.0
 10
16.1048213269
 20
11.8460195623
 30
0.0
 10
16.1051406411
 20
11.8441101934
 30
0.0
 10
16.104966329
 20
11.8428848319
 30
0.0
 10
16.1047923579
 20
11.8423218914
 30
0.0
  0
SPLINE
  5
3F8
100
AcDbEntity
  8
0
100
AcDbSpline
 62
7
  6
BYLAYER
 70
0
 71
3
 72
37
 73
33
 74
0
 42
0.0000001
 43
0.0000001
 44
0.0000000001
 40
0.0
 40
0.0
 40
0.0
 40
0.0
 40
0.0083669276
 40
0.0168451927
 40
0.0345231412
 40
0.0537850373
 40
0.0751393607
 40
0.0988910732
 40
0.1251833878
 40
0.1540385722
 40
0.1853847681
 40
0.2190824073
 40
0.2549369546
 40
0.2927100535
 40
0.3321309099
 40
0.4146808688
 40
0.4999999878
 40
0.5853190491
 40
0.6678691685
 40
0.7072897223
 40
0.7450633702
 40
0.7809173948
 40
0.8146151795
 40
0.8459617339
 40
0.8748161754
 40
0.9011091753
 40
0.9248606589
 40
0.9462146567
 40
0.9654770955
 40
0.9831547122
 40
0.9916331359
 40
1.0
 40
1.0
 40
1.0
 40
1.0
 10
16.8190390334
 20
11.8688377187
 30
0.0
 10
16.8143522922
 20
11.8688381049
 30
0.0
 10
16.8049054518
 20
11.8694386769
 30
0.0
 10
16.7858671463
 20
11.8730632071
 30
0.0
 10
16.761939228
 20
11.8823967528
 30
0.0
 10
16.7344911661
 20
11.9004247306
 30
0.0
 10
16.7080396472
 20
11.9251336742
 30
0.0
 10
16.6827583624
 20
11.9562516947
 30
0.0
 10
16.6588218879
 20
11.9934918322
 30
0.0
 10
16.6364324099
 20
12.0365208077
 30
0.0
 10
16.6157841325
 20
12.084943566
 30
0.0
 10
16.5970713127
 20
12.1383117561
 30
0.0
 10
16.5804725852
 20
12.1961237079
 30
0.0
 10
16.5661429211
 20
12.2578319429
 30
0.0
 10
16.5500103363
 20
12.3458735443
 30
0.0
 10
16.5366103008
 20
12.4613569324
 30
0.0
 10
16.5312555848
 20
12.6032120705
 30
0.0
 10
16.5366112395
 20
12.7450671568
 30
0.0
 10
16.5500097164
 20
12.8605506885
 30
0.0
 10
16.5661438539
 20
12.9485922002
 30
0.0
 10
16.5804714144
 20
13.0103007812
 30
0.0
 10
16.5970721607
 20
13.068112286
 30
0.0
 10
16.6157842813
 20
13.1214806195
 30
0.0
 10
16.6364314138
 20
13.169903838
 30
0.0
 10
16.6588234039
 20
13.2129316324
 30
0.0
 10
16.6827574284
 20
13.2501730444
 30
0.0
 10
16.7080396326
 20
13.2812908092
 30
0.0
 10
16.7344922533
 20
13.3059978364
 30
0.0
 10
16.7619380581
 20
13.3240301332
 30
0.0
 10
16.7858679801
 20
13.3333583158
 30
0.0
 10
16.8049051945
 20
13.3369873337
 30
0.0
 10
16.8143523278
 20
13.3375868514
 30
0.0
 10
16.8190390334
 20
13.3375864762
 30
0.0
  0
SPLINE
  5
3F9
100
AcDbEntity
  8
0
100
AcDbSpline
 62
7
  6
BYLAYER
 70
0
 71
3
 72
11
 73
7
 74
0
 42
0.0000001
 43
0.0000001
 44
0.0000000001
 40
0.0
 40
0.0
 40
0.0
 40
0.0
 40
0.2268630568
 40
0.4649901318
 40
0.7222804645
 40
1.0
 40
1.0
 40
1.0
 40
1.0
 10
16.5435957139
 20
11.6910738053
 30
0.0
 10
16.5428427769
 20
11.6926020132
 30
0.0
 10
16.5407441013
 20
11.6954886452
 30
0.0
 10
16.536251018
 20
11.6986690614
 30
0.0
 10
16.5307088567
 20
11.7005998199
 30
0.0
 10
16.5266739344
 20
11.7010019914
 30
0.0
 10
16.524588405
 20
11.7010019914
 30
0.0
  0
SPLINE
  5
3FA
100
AcDbEntity
  8
0
100
AcDbSpline
 62
7
  6
BYLAYER
 70
0
 71
3
 72
11
 73
7
 74
0
 42
0.0000001
 43
0.0000001
 44
0.0000000001
 40
0.0
 40
0.0
 40
0.0
 40
0.0
 40
0.2836301253
 40
0.5455715306
 40
0.7845319129
 40
1.0
 40
1.0
 40
1.0
 40
1.0
 10
15.9943554877
 20
12.0697264924
 30
0.0
 10
16.0014650844
 20
12.0475536869
 30
0.0
 10
16.016433216
 20
12.0052991084
 30
0.0
 10
16.0422947463
 20
11.9462404464
 30
0.0
 10
16.0704392169
 20
11.8945134889
 30
0.0
 10
16.0916337313
 20
11.8636871393
 30
0.0
 10
16.1026261503
 20
11.8498283548
 30
0.0
  0
SPLINE
  5
3FB
100
AcDbEntity
  8
0
100
AcDbSpline
 62
7
  6
BYLAYER
 70
0
 71
3
 72
38
 73
34
 74
0
 42
0.0000001
 43
0.0000001
 44
0.0000000001
 40
0.0
 40
0.0
 40
0.0
 40
0.0
 40
0.0083668658
 40
0.0168451681
 40
0.0345235013
 40
0.0537861994
 40
0.0751416134
 40
0.098894338
 40
0.1251878361
 40
0.1540440511
 40
0.1853911282
 40
0.2190896402
 40
0.2549447559
 40
0.2927182897
 40
0.332139399
 40
0.3729086242
 40
0.414706681
 40
0.5000247307
 40
0.5853418751
 40
0.6678892939
 40
0.7073082514
 40
0.7450801418
 40
0.7809322978
 40
0.8146281073
 40
0.8459726374
 40
0.874825024
 40
0.9011159781
 40
0.9248655555
 40
0.9462177675
 40
0.96547873
 40
0.9831552825
 40
0.9916333525
 40
1.0
 40
1.0
 40
1.0
 40
1.0
 10
16.6948420364
 20
11.8268730461
 30
0.0
 10
16.6898874315
 20
11.8268741414
 30
0.0
 10
16.6799007053
 20
11.8275108403
 30
0.0
 10
16.6597746443
 20
11.831346172
 30
0.0
 10
16.6344796523
 20
11.8412167015
 30
0.0
 10
16.6054635591
 20
11.8602790919
 30
0.0
 10
16.5775015718
 20
11.8864045288
 30
0.0
 10
16.5507760571
 20
11.9193044732
 30
0.0
 10
16.5254729939
 20
11.9586766527
 30
0.0
 10
16.5018051356
 20
12.0041679946
 30
0.0
 10
16.4799779363
 20
12.0553610533
 30
0.0
 10
16.4601974577
 20
12.111781944
 30
0.0
 10
16.4426512421
 20
12.1729002092
 30
0.0
 10
16.427505127
 20
12.2381364745
 30
0.0
 10
16.4149094727
 20
12.3068699225
 30
0.0
 10
16.4049826932
 20
12.378444855
 30
0.0
 10
16.3953744543
 20
12.4774185247
 30
0.0
 10
16.3906334861
 20
12.6032632424
 30
0.0
 10
16.3962967907
 20
12.7532169977
 30
0.0
 10
16.4104641973
 20
12.875299228
 30
0.0
 10
16.4275223937
 20
12.9683691429
 30
0.0
 10
16.4426702315
 20
13.0336016327
 30
0.0
 10
16.4602209762
 20
13.0947139546
 30
0.0
 10
16.4800037003
 20
13.1511288705
 30
0.0
 10
16.5018318349
 20
13.2023157968
 30
0.0
 10
16.525504416
 20
13.2477987152
 30
0.0
 10
16.5508071107
 20
13.2871643076
 30
0.0
 10
16.5775346993
 20
13.3200562821
 30
0.0
 10
16.6054997063
 20
13.3461708105
 30
0.0
 10
16.6345144035
 20
13.3652291739
 30
0.0
 10
16.6598119769
 20
13.3750864496
 30
0.0
 10
16.6799370115
 20
13.3789197757
 30
0.0
 10
16.6899239273
 20
13.3795517971
 30
0.0
 10
16.6948784029
 20
13.3795506508
 30
0.0
  0
SPLINE
  5
3FC
100
AcDbEntity
  8
0
100
AcDbSpline
 62
7
  6
BYLAYER
 70
0
 71
3
 72
38
 73
34
 74
0
 42
0.0000001
 43
0.0000001
 44
0.0000000001
 40
0.0
 40
0.0
 40
0.0
 40
0.0
 40
0.0083667972
 40
0.0168448964
 40
0.0345224573
 40
0.0537840053
 40
0.0751380236
 40
0.0988892182
 40
0.1251811414
 40
0.1540357989
 40
0.1853813851
 40
0.2190785122
 40
0.2549323754
 40
0.2927048145
 40
0.3321250055
 40
0.372893502
 40
0.4146910319
 40
0.5000086579
 40
0.5853262349
 40
0.6678749173
 40
0.7072947967
 40
0.7450677833
 40
0.7809211918
 40
0.8146183876
 40
0.8459644058
 40
0.8748183477
 40
0.9011108744
 40
0.9248619759
 40
0.9462155803
 40
0.9654776891
 40
0.9831550105
 40
0.9916332835
 40
1.0
 40
1.0
 40
1.0
 40
1.0
 10
16.7803873667
 20
11.8268730435
 30
0.0
 10
16.7754328019
 20
11.8268733709
 30
0.0
 10
16.7654461362
 20
11.8275085096
 30
0.0
 10
16.7453200997
 20
11.8313406826
 30
0.0
 10
16.720024866
 20
11.8412072211
 30
0.0
 10
16.6910081649
 20
11.8602651874
 30
0.0
 10
16.6630454731
 20
11.8863863814
 30
0.0
 10
16.6363191383
 20
11.9192822562
 30
0.0
 10
16.6110151376
 20
11.9586505714
 30
0.0
 10
16.5873462093
 20
12.0041382845
 30
0.0
 10
16.5655178113
 20
12.055327989
 30
0.0
 10
16.545736019
 20
12.1117458372
 30
0.0
 10
16.5281883757
 20
12.1728614006
 30
0.0
 10
16.5130407383
 20
12.238095334
 30
0.0
 10
16.500443482
 20
12.3068268438
 30
0.0
 10
16.4905150297
 20
12.3784002502
 30
0.0
 10
16.4809044585
 20
12.4773727018
 30
0.0
 10
16.4761605765
 20
12.6032170133
 30
0.0
 10
16.4818204275
 20
12.753171661
 30
0.0
 10
16.4959849971
 20
12.8752557809
 30
0.0
 10
16.5130409802
 20
12.9683280807
 30
0.0
 10
16.5281873034
 20
13.0335629124
 30
0.0
 10
16.5457366307
 20
13.0946779432
 30
0.0
 10
16.5655180438
 20
13.1510959077
 30
0.0
 10
16.5873449935
 20
13.2022861877
 30
0.0
 10
16.611016513
 20
13.2477727328
 30
0.0
 10
16.6363182755
 20
13.2871421864
 30
0.0
 10
16.6630450604
 20
13.3200382154
 30
0.0
 10
16.6910093675
 20
13.3461569787
 30
0.0
 10
16.7200234678
 20
13.3652197467
 30
0.0
 10
16.7453208087
 20
13.3750809915
 30
0.0
 10
16.7654458711
 20
13.3789174596
 30
0.0
 10
16.7754328497
 20
13.3795510372
 30
0.0
 10
16.7803873667
 20
13.3795506536
 30
0.0
  0
SPLINE
  5
3FD
100
AcDbEntity
  8
0
100
AcDbSpline
 62
7
  6
BYLAYER
 70
0
 71
3
 72
11
 73
7
 74
0
 42
0.0000001
 43
0.0000001
 44
0.0000000001
 40
0.0
 40
0.0
 40
0.0
 40
0.0
 40
0.2286008705
 40
0.4657005546
 40
0.7215196182
 40
1.0
 40
1.0
 40
1.0
 40
1.0
 10
15.664443775
 20
12.0854146538
 30
0.0
 10
15.6651359503
 20
12.0876544694
 30
0.0
 10
15.6674008254
 20
12.0920002018
 30
0.0
 10
15.6730405225
 20
12.097011836
 30
0.0
 10
15.6804447861
 20
12.1001250959
 30
0.0
 10
15.6859587842
 20
12.1007685877
 30
0.0
 10
15.6888146339
 20
12.1007685877
 30
0.0
  0
SPLINE
  5
3FE
100
AcDbEntity
  8
0
100
AcDbSpline
 62
7
  6
BYLAYER
 70
0
 71
3
 72
14
 73
10
 74
0
 42
0.0000001
 43
0.0000001
 44
0.0000000001
 40
0.0
 40
0.0
 40
0.0
 40
0.0
 40
0.269993807
 40
0.4094466673
 40
0.5451394958
 40
0.6729569133
 40
0.7905704427
 40
0.8983629651
 40
1.0
 40
1.0
 40
1.0
 40
1.0
 10
16.524588405
 20
11.7010019914
 30
0.0
 10
16.5195396615
 20
11.7010019914
 30
0.0
 10
16.5118082468
 20
11.6991735744
 30
0.0
 10
16.5029035057
 20
11.694144468
 30
0.0
 10
16.4971437483
 20
11.689196142
 30
0.0
 10
16.4928207643
 20
11.6834528016
 30
0.0
 10
16.4902439216
 20
11.6772804784
 30
0.0
 10
16.4896515287
 20
11.6710869617
 30
0.0
 10
16.4907012742
 20
11.6672020828
 30
0.0
 10
16.4915412494
 20
11.6654972167
 30
0.0
  0
ELLIPSE
  5
3FF
100
AcDbEntity
  8
0
100
AcDbEllipse
 62
7
  6
BYLAYER
 10
4.8571428571
 20
11.9436526258
 30
0.0
 11
0.0
 21
0.0509134725
 31
0.0
 40
0.7014702392
 41
-0.0
 42
1.5707963268
  0
ELLIPSE
  5
400
100
AcDbEntity
  8
0
100
AcDbEllipse
 62
7
  6
BYLAYER
 10
5.1428571429
 20
11.9436526258
 30
0.0
 11
-0.0
 21
0.0509134725
 31
0.0
 40
0.7014702392
 41
-1.5707963268
 42
0.0
  0
ELLIPSE
  5
401
100
AcDbEntity
  8
0
100
AcDbEllipse
 62
7
  6
BYLAYER
 10
15.6686076572
 20
11.9779242938
 30
0.0
 11
0.0019874534
 21
0.0620733301
 31
0.0
 40
0.5294716676
 41
0.0169509104
 42
1.092815019
  0
ELLIPSE
  5
402
100
AcDbEntity
  8
0
100
AcDbEllipse
 62
7
  6
BYLAYER
 10
15.9317679412
 20
11.9779242938
 30
0.0
 11
0.0019874534
 21
0.0620733301
 31
0.0
 40
0.5294716676
 41
-1.5538454164
 42
0.0169509104
  0
ELLIPSE
  5
403
100
AcDbEntity
  8
0
100
AcDbEllipse
 62
7
  6
BYLAYER
 10
15.9174670941
 20
11.3571018032
 30
0.0
 11
0.0019874534
 21
0.0620733301
 31
0.0
 40
0.5294716676
 41
-2.0487776346
 42
-1.5538454164
  0
ENDSEC
  0
SECTION
  2
OBJECTS
  0
DICTIONARY
  5
C
100
AcDbDictionary
280
0
281
1
  3
ACAD_GROUP
350
D
  3
ACAD_MLINESTYLE
350
17
  3
ACAD_LAYOUT
350
1A
  3
ACAD_PLOTSETTINGS
350
19
  3
ACAD_PLOTSTYLENAME
350
E
  0
DICTIONARY
  5
D
102
{ACAD_REACTORS
330
C
102
}
100
AcDbDictionary
280
0
281
1
  0
ACDBDICTIONARYWDFLT
  5
E
102
{ACAD_REACTORS
330
C
102
}
100
AcDbDictionary
281
1
  3
Normal
350
F
100
AcDbDictionaryWithDefault
340
F
  0
DICTIONARY
  5
17
102
{ACAD_REACTORS
330
C
102
}
100
AcDbDictionary
280
0
281
1
  3
Standard
350
18
  0
DICTIONARY
  5
19
102
{ACAD_REACTORS
330
C
102
}
100
AcDbDictionary
281
1
  0
DICTIONARY
  5
1A
102
{ACAD_REACTORS
330
C
102
}
100
AcDbDictionary
281
1
  3
Model
350
404
  3
Layout1
350
405
  0
ACDBPLACEHOLDER
  5
F
102
{ACAD_REACTORS
330
E
102
}
  0
MLINESTYLE
  5
18
102
{ACAD_REACTORS
330
17
102
}
100
AcDbMlineStyle
  2
STANDARD
 70
0
  3

 62
256
 51
90.0
 52
90.0
 71
2
 49
0.5
 62
256
  6
BYLAYER
 49
-0.5
 62
256
  6
BYLAYER
  0
LAYOUT
  5
404
102
{ACAD_REACTORS
330
1A
102
}
100
AcDbPlotSettings
  1

  2
none_device
  4
ANSI_C_(22.00_x_17.00_Inches)
  6

 40
0.0
 41
0.0
 42
0.0
 43
0.0
 44
558.8
 45
431.8
 46
0.0
 47
0.0
 48
0.0
 49
0.0
140
0.0
141
0.0
142
1.0
143
1.0
 70
1024
 72
0
 73
0
 74
0
  7

 75
0
147
1.0
148
0.0
149
0.0
100
AcDbLayout
  1
Model
 70
0
 71
0
 10
0.0
 20
0.0
 11
22.0
 21
17.0
 12
0.0
 22
0.0
 32
0.0
 14
0.0
 24
0.0
 34
0.0
 15
0.0
 25
0.0
 35
0.0
146
0.0
 13
0.0
 23
0.0
 33
0.0
 16
1.0
 26
0.0
 36
0.0
 17
0.0
 27
1.0
 37
0.0
 76
0
330
218
345
0
346
0
  0
LAYOUT
  5
405
102
{ACAD_REACTORS
330
1A
102
}
100
AcDbPlotSettings
  1

  2
none_device
  4
ANSI_C_(22.00_x_17.00_Inches)
  6

 40
0.0
 41
0.0
 42
0.0
 43
0.0
 44
558.8
 45
431.8
 46
0.0
 47
0.0
 48
0.0
 49
0.0
140
0.0
141
0.0
142
1.0
143
1.0
 70
0
 72
0
 73
0
 74
0
  7

 75
0
147
1.0
148
0.0
149
0.0
100
AcDbLayout
  1
Layout1
 70
0
 71
1
 10
0.0
 20
0.0
 11
22.0
 21
17.0
 12
0.0
 22
0.0
 32
0.0
 14
0.0
 24
0.0
 34
0.0
 15
0.0
 25
0.0
 35
0.0
146
0.0
 13
0.0
 23
0.0
 33
0.0
 16
1.0
 26
0.0
 36
0.0
 17
0.0
 27
1.0
 37
0.0
 76
0
330
219
345
0
346
0
  0
ENDSEC
  0
EOF
